Strike

A Tendência

202.178 exibições
Tom: A#

 Intro:( Bb  F  Eb  F )
E|-2--(11x)---------0--(11x)--------------------|
B|----------------------------------------------|
G|----------------------------------------------|
D|----------------------------------------------|
A|----------------------------------------------|
E|----------------------------------------------|


E|------------14---------------11h12p11---------|
B|----12-----------12--------------------12-----|
G|-11----11-----11----11--------------------11--|
D|----------------------------------------------|
A|----------------------------------------------|
E|----------------------------------------------|


E|------------14-----------12-12-12-12-12-12-12-|
B|----12------------14-----12-12-12-12-12-12-12-|
G|-11----11------11-----------------------------|
D|----------------------------------------------|
A|----------------------------------------------|
E|----------------------------------------------|


E|------------14---------------11h12p11---------|
B|----12-----------12--------------------12-----|
G|-11----11-----11----11--------------------11--|
D|----------------------------------------------|
A|----------------------------------------------|
E|----------------------------------------------|


E|-------------11-------------------------------|
B|----12----14----12----------------------------|
G|-11----11-------------------------------------|
D|----------------------------------------------|
A|----------------------------------------------|
E|----------------------------------------------|


  Bb
Se já não sei quem eu sou
  Eb                    F
E vivo sempre a esperar  a tendência  a tendência
 Bb
Mudei o look e aumentou
 Eb                     F
Minha audiência sem eu precisar de essência  de essência
 Bb                          Eb                  F
Posso ser triste   emotivo  alegre ou deprimido  eu mudo até você me aceitar
 Bb                          Eb
Posso ser um nerd assumido ou um fashion colorido
 F
O que importa é alguém comprar

             Gm          F
Se quer saber  cansei  o mundo me ignora
 Eb                F
E elas não ligam pra mim
  Gm          F                Eb                       F
Voltei  sou rockstar agora  vazio por dentro mais por fora perfeitin

Refrão:
        Bb                 Eb                   Cm
Se eu bombar  meu site na internet você vai me amar
                Eb                  Gm          F
Vou tocar no seu rádio até você cansar  e na tv vou estar
Eb             F
Serei teu vício
               Bb
E eu ja choro até
                Eb               Cm
E se não tivér letra é só cantar yeah yeah
          Eb                  Gm
Se falta conteúdo vai sobrar mulher
            F
Sou inútil mais não sou qualquer
  Eb            F
Você vai querer estar comigo

( Bb  F  Eb  F )

  Bb                         Eb
Eu hoje aperto a calça pro volume ser maior
  F
Se esquento a franja pra alto estima é melhor
  Bb                 Eb                F
De nike e gola v pra causar no shopping e conquistar você

             Gm          F
Se quer saber  cansei  o mundo me ignora
 Eb                F
E elas não ligam pra mim
 Gm        F                Eb                       F
Voltei  sou rockstar agora  vazio por dentro mais por fora perfeitin

Refrão:
        Bb                 Eb                   Cm
Se eu bombar  meu site na internet você vai me amar
                Eb                  Gm         F
Vou tocar no seu rádio até você cansar  e na tv vou estar
Eb             F
Serei teu vício
               Bb
E eu ja choro até
                Eb               Cm
E se não tivér letra é só cantar yeah yeah
          Eb                  Gm
Se falta conteúdo vai sobrar mulher
            F
Sou inútil mais não sou qualquer
  Eb            F
Você vai querer estar comigo

 Bb                    F
Mas eu não tenho nada a acrescentar
 Eb                    F
Só interesseira que tenta aproximar
 Bb                  F            Eb
Na capa da revista teen pra você olhar
( F# )
Wo wo baby !

( Bb  F  Gm  Eb ) (2x)

Refrão:
          Bb                     Eb              Cm
Se eu bombar  meu site na internet você vai me amar
                   Eb               Gm        F
Vou tocar no seu rádio até você cansar  e na tv vou estar
  Eb             F
Serei teu vício
               Bb
E eu ja choro até
                Eb                     Cm
E se não tivér letra é só cantar yeah yeah
               Eb                 Gm
Se falta conteúdo vai sobrar mulher
                    F
Sou inútil mais não sou qualquer
      Eb            F
Você vai querer estar comigo

 ( Bb  F  Eb  F )
Solo:

E|--------------------------------------------------------------------------------------------|
B|--------------------------------------------------------------------------------------------|
G|--------------------------------------------------------------------------------------------|
D|-9-9-9-11-11-11-13-13-9-9-9-11-11-11-13-13-9-9-9-11-11-11-13-13-14-14-14-13-13-13-11-11-9---|
A|--------------------------------------------------------------------------------------------|
E|--------------------------------------------------------------------------------------------|


E|-11h12-11--------------------------|------------------------------7-|
B|---------12------------------------|----------------------------7---|
G|------------11-9-8-9-11-10---------|-4-4-4-6-6-6-8-8-8-9-9-9-8------|
D|---------------------------9h11-9--|--------------------------------|
A|-----------------------------------|--------------------------------|
E|-----------------------------------|--------------------------------|
    Composição: André Maini / Fábio Perez / Marcelo Mancini / Rodrigo MacielColaboração e revisão:
    • jhonnykk
    • faraelm
    • allanzin
    • andre_a7x
    • +15

    Comentários 16

    • juan juan: Postado em 26/08/2013 15:04

      é mesmo a musica é meio tom abaixo

    • henrique henrique: Postado em 01/07/2013 16:18

      a musica esta meio tom acima da original e so coloca meio tom abaixo :)

    • mc.mary mc.mary: Postado em 22/09/2012 17:15

      Eu consegui tocar essa musica é daora ela

    • rhafael32 rhafael32: Postado em 15/05/2012 20:13

      a música eh afinada meio tom abaixo todas as cordas

    • hugoflu1 hugoflu1: Postado em 13/07/2011 20:40

      Procurem na youtube tv cifras eu achei lá uma video aula do guitarrista solo e do baixista

    • rangeloliveira rangeloliveira: Postado em 02/07/2011 18:58

      nao emtendi galera no lugar da NOTA gm ficaria G#m ? e isso se for avisa aee blz ?

    • marin_n.e.s marin_n.e.s: Postado em 15/06/2011 23:54

      pow vei bem q vcs podia facilitar as coisas e colocar a tablatura de contra baixo

    • vinnyguitars vinnyguitars: Postado em 04/06/2011 12:05

      no original a música é tocada em Bb e no jeito qe ta ali tbm acho ta errado mesmo é G#m

    • valterkjr valterkjr: Postado em 03/04/2011 17:26

      Video Aula Please

    • tonigatinho tonigatinho: Postado em 02/04/2011 02:55

      Ficou legal mas tou com o amigo ai o certo é G#m msm viu pessoal ;D vlw

    Exibindo 10 de 16 comentários Mostrar mais ver todos »

    conseguiu tocar?

    • Thaís
    • ThiagoSampaioMatias
    • Ju
    • jackson.rubens.9843
    • Matheus
    • na_bello
    • juan
    • •••
    Guilherme9.376 visualizações
      ver covers de outras músicas »
      0:00 / 0:00

      Capítulos

        1 versão de baixoexibiçõescontribuição e correção
        3 versões de Guitar Proformatodownloadscontribuição
        play/pausefechar subir/descer velocidade
        6ª corda E5ª corda A4ª corda D3ª corda G2ª corda B1ª corda E
          acordes
          publicidad
          fechar
          ok