Sublime

Santeria

444.138 exibições
Tom: E
(intro) E  G#  C#m  B


E|----------------------------------------------------------------------|
B|-----------------------------4-----------------------5---------7------|
G|-----9----------9--------------5-------5-------6-4/6---6---------8----|
D|---9---9------9---9-9------------6---6-------6-----------6---------9--|
A|-7-------7--7---------7----6-------6----4-4----------------7----------|
E|-------------------------4-----------------------------------7--------|


Verso 1:
             E                        G#
I don't practice santeria i ain't got no crystal ball
     C#m                            B
I had a million dollars but i'd  i'd spend it all
     E                                 G#
If i could find that heina and that sancho she's found
            C#m                      B
Well i'd pop a cap in sancho and i'd   slap her down

Refrão:
A        B             E   C#m
All i really wanna know my baby
A        B            E   C#m      A
All i really wanna say i can't define
       B            E    C#m
It's love that i need
A          B
But my soul will have to

Verso 2:
             E                        G#
Wait 'till i get back  find a heina of my own
     C#m                            B
Daddy's gonna love one and all
     E                                 G#
I feel the break  feel the break  feel the break
            C#m                      B
And i gotta live it up

Oh yeah  uh huh  well i swear that i

Refrão:
A        B             E   C#m
All i really wanna know my baby

A        B            E   C#m      A
All i really wanna say i can't define
       B            E    C#m
That love will make it go
A          B
But my soul will have to

Solo:

Refrão:
A        B             E   C#m
All i really wanna say my baby
A        B            E   C#m      A
All i really wanna say is i've got mine
       B            E    C#m
And i'll make it yes i'm comin' up
A          B
Tell sanchito that if

Verso 3:
E                                G#
He knows what is good for him he best go run and hide
C#m                B
Daddy's got a new 45
   E                         G#
And i won't think twice to stick that barrel straight down sancho's throat
  C#m                            B
Believe me when i say that i've got something for his punk ass

Refrão:
A        B             E   C#m
Well i really wanna know my baby
A        B            E   C#m      A
What i really wanna say is there's just one way back
       B            E    C#m
And i'll make it
Yeah my soul will have to wait
Riff - Refrão:

   A       B       E       C#m
E|-5-------7-----------------------|
B|---5-------7-----9---------------|
G|-----6-------8-----9---------6---|
D|-------7-------9-------9-6-----6-|
A|---------------------7-----4-----|
E|---------------------------------|


As close as i could come to it at least. oh  well  i think i
Did a damn good job on it  but you don't have to. toy with it
Some and try to make it sound better. the intro was all i got
But it was worth it anyway. have fun...

E|---------------------------------|
B|---------------------------------|
G|----9-------9----------5-----5---|
D|---9--9----9-9-----------6---6-6-|
A|-7-----7-7----7-------6---6--6-6-|
E|---------------(7-4)4-----(4)4---|



E|---------------------------------|
B|--------5-5---4(3)----------7----|
G|------------6-4(3)6/7(6)--6--6---|
D|(6)-----6-6-------4/5(4)4------4-|
A|6-6p4-4-------4------------------|
E|---------------------------------|


..let the last note ring until the verse breaks in with
Abunch of chords and such.


   E5                       G#
E|---------------------------------------------|
B|-----------------------------4---------------|
G|----9--------9----(9)---------5-----5--------|
D|--9---9-----9--9-9(9)-----------6-----6-6----|
A|7-------7-7--------7------6-------6-------4--|
E|-------------------------4-------------------|


   C#m                        B
E|---------------------------------------------|
B|----------5-------(5)/--------7--------------|
G|----6-------6---6-(6)/----------8-----8------|
D|--6---6-------6----6-/------------9-----9-9--|
A|4------------------4-/------9-------9--------|
E|--------------------------7------------------|


   A        B      E         C#m
E|5-------7--------------------------------|
B|--5-------7-----9------7--------5--------|
G|----6-------8-----9----8------6---6------|
D|----------------------------6-------6----|
A|---------------------6----4-----------4--|
E|-----------------------------------------|

Solo:

E|--------------------------------------------------------------|
B|--------------------------------------------------------------|
G|-----------9-/11-11-9-8--8p6-8-8b9r8--6-6p4---4---------------|
D|------9-11----------------------------------6---4b6r4-2-4p2---|
A|7-9/11------------------------------------------------------4-|
E|--------------------------------------------------------------|



E|-------------------0------------------------------------------|
B|----------------0h2----12b13-14-12----------------------------|
G|-----------------------------------13-11h13p11-9----9---------|
D|2-----------246----------------------------------11---11p9----|
A|--4-----234---------------------------------------------------|
E|----234-------------------------------------------------------|



E|-----------------------------------9------------9-------------|
B|-----------------------------9------9------------9------------|
G|-----------------------------11b13---9-11b13------9-11b13r11--|
D|--------9-------10-----10-------------------------------------|
A|11-9h11----h6-7--/11----/11-----------------------------------|
E|--------------------------------------------------------------|



E|--------------------------------------------------------------|
B|--------------------------------------------------------------|
G|-11b13r11-9-11-9~---------------------------------------------|
D|--------------------------------------------------------------|
A|--------------------------------------------------------------|
E|--------------------------------------------------------------|

                     ...ooooohhhh and i really wanna know........
    Composição: SublimeColaboração e revisão:
    • yann
    • zeti25
    • jgy
    • Rafael
    • +3

    Comentários 15

    • rockandcountry rockandcountry: Postado em 15/06/2013 22:20

      *-* mto triiiii lendária essa música

    • marley229 marley229: Postado em 05/02/2013 14:22

      video aula pffffff

    • zerkrom zerkrom: Postado em 25/11/2012 10:57

      parece a billionare do bruno marz

    • lucas_santana lucas_santana: Postado em 24/10/2012 20:34

      Alguém sabe quais as cordas que tocam? pra dedilhar a introdução

    • tyer tyer: Postado em 21/10/2012 15:49

      Meytal C.

    • lpslucas13 lpslucas13: Postado em 03/06/2012 13:12

      dica: no fim da musica toquem um E7 com bend

    • idalino idalino: Postado em 16/04/2012 13:01

      eu queria a video aula dessa musica ...acho otima = ]

    • Mr.Brownstone Mr.Brownstone: Postado em 18/05/2011 00:46

      vo ve eles em poa haha

    Exibindo 10 de 15 comentários Mostrar mais ver todos »

    conseguiu tocar?

    • Lauro
    • Mateus
    • glauberpontes
    • evandro.mazer
    • darkmetalsheep
    • Adrian
    • Ju N.
    • •••
    0:00 / 0:00

    Capítulos

      5 versões de baixoexibiçõescontribuição e correção
      1 versão de bateriaexibiçõescontribuição e correção
      1 versão de gaitaexibiçõescontribuição e correção
      play/pausefechar subir/descer velocidade
      6ª corda E5ª corda A4ª corda D3ª corda G2ª corda B1ª corda E
        acordes
        publicidad
        fechar
        ok