In Too Deep

Sum 41

 Sum 41
Guitarra toca intro 4x e só então o baixo toca:
Intro
G|-------------------| 
D|-9---------6-------| 
A|—---7-7-------7-7--| 
E|-------------------| 

G|----------------------------------------------------------------------| 
D|-9-9---------------------1414-------------------77-9/-----------------| 
A|—-----4-5-6---77-99-1212------00-44-55-66-77-99-----------------------| 
E|------------------------------------------------------55-77-5-5-5-5-5-| 

Refrão(x2): 
G|--------------------------------------------------------------| 
D|--------------------------------------------------------------| 
A|—-------------------------------------------------------------| 
E|-0-0h4--5-5-5-5--0-0h4--5-5-5-5--0-0h4--5-5-5-5--0-0h4--5-5---| 

G|----------------------------------------| 
D|--------------------------/141414141414-| 
A|—7-7-7-7--5-5-5-5-----------------------| 
E|------------------5-5-5-5---------------| 

Riff 1
G|-------------------------------------------------------------------| 
D|---------------------------------------------------------7-6---7---| 
A|—----/7--------------/7--------------/7--------------/7------9-----| 
E|-0-0----5-5-4-5--0-0----5-5-4-5--0-0----5-5-4-5--0-0---------------| 

Depois (x2) 
G|--------------------------------------| 
D|--------------------------------------| 
A|—-------------------------------------| 
E|-0-0—--4-5-5---4-0-0---4-5-5---4-5-5--| 

Pré-Refrão
G|--------------------------------------------| 
D|--------------------------------7-7-7-7-7---| 
A|—--------------------7-7-7-7-7--------------| 
E|-0-0-0-0-0-5-5-5-5-5------------------------| 

Refrão(x2) : 
G|--------------------------------------------------------------| 
D|--------------------------------------------------------------| 
A|—-------------------------------------------------------------| 
E|-0-0h4--5-5-5-5--0-0h4--5-5-5-5--0-0h4--5-5-5-5--0-0h4--5-5---| 

Depois
G|-------------------------------------| 
D|-------------------------------------| 
A|—7-7-7-7--5-5-5-5--------------------| 
E|------------------5-5-5-5-5-5-5-5-5--| 

G|---------------------------------------| 
D|--------------------------/141414141414| 
A|—7-7-7-7--5-5-5-5----------------------| 
E|------------------5-5-5-5--------------| 

Após o solo da guitarra
G|-----------| 
D|-----------| 
A|—----------| 
E|-5-x-x-x-x-| 

Durante o solo da guitarra (x2)
G|---------------------------------------------| 
D|---------------------------------------------| 
A|—----------------------5-5-5-5-5-------------| 
E|-0-0-0-0-0--2-2-2-2-2------------5-5-5-5-5-4-| 

Riff 2(x4)
G|--------------------| 
D|--------------------| 
A|—----------0-0--2-2-| 
E|-0-0--2-2-----------| 

Pré-Refrão
G|---------------------------------------------| 
D|---------------------------------------------| 
A|—7-7-7-7--9-9-9-9--12-12-12-12--14-14-14-14--| 
E|---------------------------------------------| 

G|----------------------------------| 
D|----------------------------------| 
A|—7-7-7-7--9-9-9-9--12-------------| 
E|------------------------5-x-x-x-x-| 

Refrão
G|-------------------------------------------------------------------| 
D|---------------------------------------------------------7-6---7---| 
A|—----/7--------------/7--------------/7--------------/7------9-----| 
E|-0-0----5-5-4-5--0-0----5-5-4-5--0-0----5-5-4-5--0-0---------------| 

G|-------------------------------------------------| 
D|-------------------------------------------------| 
A|—----/7--------------/7--------------/7----------| 
E|-0-0----5-5-4-5--0-0----5-5-4-5--0-0----5-5-4-5--| 

Final 
G|-------------------------------------| 
D|-------------------------------------| 
A|—7-7-7-7--5-5-5-5--------------------| 
E|------------------5-5-5-5-5-5-5-5-5--| 

G|------------------------------------| 
D|------------------------------------| 
A|—7-7-7-7--5-5-5-5---------/15151514-| 
E|------------------5-5-5-5-----------| 

G|-------------------------------------| 
D|-------------------------------------| 
A|—7-7-7-7--5-5-5-5--------------------| 
E|------------------5-5-5-5-5-5-5-5-5--| 


G|------------------------------------| 
D|------------------------------------| 
A|—7-7-7-7--5-5-5-5---------/15151514-| 
E|------------------5-5-5-5-----------| 

G|-------------------------------------| 
D|--------------------------------1214-| 
A|—7-7-7-7--5-5-5-5---------/1514------| 
E|------------------5-5-5-5------------| 

Última nota
G|---| 
D|---| 
A|—7-| 
E----|


_______________________________________________________
Contribuição: Mozart Petter(mozart_petter@yahoo.com.br)

Comentários 0

Composição: Ivan Ferreira / Laurie Klein
Esse não é o compositor? Avise-nos.
Consegui tocarAinda não conseguiram tocar essa música. Seja o primeiro!
    Não consegui tocar
    publicidade
    fechar