The hell song

Sum 41

 Sum 41
Tom: G#
		
Intro (Guitarra 1)

e|---------------------------------------------|        
B|---------------------------------------------|        
G|---------------------------------------------|        
D|--------------------1---------1---2-2-1-1----| 3x 
A|------4h-6-----2h-4---2-2h-2-4-2----------4-4|        
E|--4-7------7-0-----------------2-------------|        


a intro tbm pode ser feita assim



e|-----------------------------------------------------|        
B|-----------------------------------------------------|        
G|-----------------------------------------------------|        
D|-----------------------------------------------------| 3x 
A|------4h-6--------4--6-------4--6--------2-2-1-1-----|        
E|--4-7------7-0--7-------7-0-------7--0-2---------4-4-|        


Intro (Guitarra 2)

e|-------------------------------|
B|-------------------------------|
G|--------------44444------------|
D|--66666-22222-44444-44444------| 2x
A|--66666-22222-22222-44444------|
E|--44444-00000-------22222------|


Riff 1

e|---------------------------------------|
B|---------------------------------------|
G|------------------4444444--------------|
D|--6666666-2222222-4444444-4444444------| 2x
A|--6666666-2222222-2222222-4444444------|
E|--4444444-0000000---------2222222------|

    ####### ####### ####### #######

Riff 2

e|--------------------------------------------------|
B|--------------------------------------------------|
G|------------------------44-4-44-4-----------------|
D|--66-6-66-6--22-2-22-2--44-4-44-4--44-4-44-4------| 2x
A|--66-6-66-6--22-2-22-2--22-2-22-2--44-4-44-4------|
E|--44-4-44-4--00-0-00-0-------------22-2-22-2------|

    ##   ##    ##   ##    ##   ##    ##   ##

-------------
| Intro  2x |
| Riff 2 4x |
-------------

Refrao

e|---------------------------------------|
B|---------------------------------------|
G|----------9999999-4444444--------------|
D|--6666666-9999999-4444444-4444444------| 4x
A|--6666666-7777777-2222222-4444444------|
E|--4444444-----------------2222222------|    


No fim do 4º refrao, quando o carinha diz "anymore...", toque isso:

e|---------------|
B|---------------|
G|---------------|
D|--66-66-66-6/0--|
A|--66-66-66-6/0--|
E|--44-44-44-4/0--|


Solo (A segunda guitarra faz a mesma base do refrao)


------|-------------------------------|---------------------------------------|
----9-|---9-9-9-9/-4/9---9-9-9-9/-4/7-|---7-7-7-7-----------------------------|
---11b|--------------11b--------------|-----------9-8-6---6h8h9h6h8h6/4h6h4/3-|
------|-------------------------------|---------------------------------------|
------|-------------------------------|---------------------------------------|
------|-------------------------------|---------------------------------------|



---------------------------|----------------------------------------------------------|
--4--5--7--9-7--5-4--5--7--|----------------------------------------------------------|
--4--6--8--9-8--6-4--6--8--|--3h4h3h4h3h4h3-4h6h4h6h4h6h4-6h8h6h8h6h8h6-8h9h8h9h8h9h8-|
---------------------------|----------------------------------------------------------|
---------------------------|----------------------------------------------------------|
---------------------------|----------------------------------------------------------|                                   
--------------------------------11-|---------------------------------------------|
--9---4-11---4/12---4/14--12----14b|---14b14b14b14r12----12-14b-14r-12--14-12-14b|
--11b---13b----14b----16b----13----|------------------13-------------------------|
-----------------------------------|---------------------------------------------|
-----------------------------------|---------------------------------------------|
-----------------------------------|---------------------------------------------|



---14----------------14-------------|--------------------------------------------|
------14r-12--12-14b----14r-12---11-|--11-12-12----------------------------------|
------------------------------------|-----------11h13h11-------------------------|
------------------------------------|--------------------11-13h11-9-11h9--11h9-9-|
------------------------------------|--------------------------------------------|
------------------------------------|--------------------------------------------|


Riff 3 

e|--------------------------------------------------------------------|
B|--------------------------------------------------------------------|
G|------------------4444444--------------------------4444444----------|
D|--6666666-2222222-4444444-4444444--6666666-2222222-4444444-4~~~-----|
A|--6666666-2222222-2222222-4444444--6666666-2222222-2222222-4~~~-----|
E|--4444444-0000000---------2222222--4444444-0000000---------2~~~-----|

    ####### ####### ####### #######  ####### ####### #######

Chorus 2

e|-------------------------------------------|
B|-------------------------------------------|
G|----------9999999-4444444------------------|
D|--6666666-9999999-4444444-4-2-1------------|
A|--6666666-7777777-2222222------4-2-1-------|
E|--4444444---------------------------2------|


---------------------------------
|Intro Guitarra 1 e 2 juntas  . |
---------------------------------

Acaba em:
e|-------|
B|-------|
G|-------|
D|--6~~--|
A|--6~~--|
E|--4~~--|

# abafar
b bend
d soltar bend
~ deixe a corda soar.

Comentários 2

  • KurTi KurTi: Postado em 14/10/2011 16:16

    A base é fácil de pegar, o solo é apenas questão de tempo... e uma parte do solo dessa cifra está errado! XD

  • artur_punkrock artur_punkrock: Postado em 09/09/2011 00:06

    só o solo q naum rolo mais a base foi facil !

Composição: Ivan Ferreira / Laurie Klein
Esse não é o compositor? Avise-nos.
Contribuição: Guixo Correções: Larissinhah.48 , Cimolin e mais 3 »
Exibir acordes »
publicidade
fechar