My Heart Will Go On

Sungha Jung

 Sungha Jung Compositor: Celine Dion
Tom: C(acordes na forma do tom A)
Capotraste na 3ª casa		
Capo: 3 Casa


D|-----------------|-5-----0-----7----------------|
A|-5/7-7/9---------|---9------7-------------------|
D|-----------------|-----9----6-------------------|
G|-----------------|----------7-------------------|
A|-----------------|----------0-------------------|
D|-----0-----------|------------------------------|



D|-5p4-0-----------|---------|
A|----------4------|---------|
D|-----------------|-2-------|
G|-----------------|---------|
A|-----------------|-0-------|
D|-----5-----------|---------|



D|-----------------|-5-----0-----7----------------|
A|-5/7-7/9---------|---9------7-------------------|
D|-----------------|-----9----6-------------------|
G|-----------------|----------7-------------------|
A|-----------------|----------0-------------------|
D|-----0-----------|------------------------------|



D|-4h7/9--7--------|---------|
A|-----------------|---7-----|
D|-----------------|---6-----|
G|-----------------|---7-----|
A|-----------------|---0-----|
D|-----5-----------|---------|



D|-0------0-0---0-------|---0--------0------------|
A|----------------------|-4-----------------------|
D|-2--------------------|-2--------2--------------|
G|-4---4------4---0-----|--------2------0---------|
A|---0------------------|-0----0------------------|
D|-0--------------------|-------------------------|



D|---0---------2---|-4-----5p4--2-----------------|
A|-4---------------|-5----------4-----------------|
D|----------0------|-4----------0-----------------|
G|--------0--------|----0----------0--------------|
A|-----------------|-0----------0-----------------|
D|-5----5----------|------------------------------|



D|-0------0-0---0-------|---0--------0------------|
A|----------------------|-4-----------------------|
D|-2--------------------|-2--------2--------------|
G|-4---4------4---0-----|--------2------0---------|
A|---0------------------|-0----0------------------|
D|-0--------------------|-------------------------|



D|---------------0------|--------0-2---0h2p0----0-----|
A|-0-----------0--------|---0-----------------4-------|
D|-------0---0----------|-4---4-----------------------|
G|-----0---4------------|-----------------------------|
A|---2------------------|----------0------------------|
D|-5--------------------|-5---------------------------|



D|-0------0-0---0-------|---0-------0-----------------|
A|----------------------|-4---------------------------|
D|-----4----------------|-4-------2-------------------|
G|---4--------4---0-----|-------2------0--------------|
A|-2--------------------|-0---0-----------------------|
D|----------------------|-----------------------------|



D|---------------0------|---0----4-----0--------------|
A|-0-----------0--------|-----7----7------------------|
D|-------0---0----------|-6---------------------------|
G|-----0---4------------|------------0----------------|
A|---2------------------|-0------0--------------------|
D|-5--------------------|-----------------------------|



D|--------0-------------|-2---------------------------|
A|--------0----0--------|-4-----4------0--------------|
D|-----4--4-------------|-4---4-2p0-------------------|
G|---4----4--4---0------|---2--------2---0------------|
A|-2------2-------------|-0-----0---------------------|
D|----------------------|-----------------------------|



D|-7----5---------------|
A|-5--------9-7---------|
D|----------------------|
G|---5----5-------------|
A|----------------------|
D|-5--------------------|



D|---------4--5---------|-4-------2-------------------|
A|-------0--------------|-----2-------5---------------|
D|-----6----------------|-----------------------------|
G|---7----------0-------|---4---4---4---0-------------|
A|-0-------0------------|-2---------------------------|
D|----------------------|-----------------------------|



D|---0--------0---------|---------------0-------------|
A|-4--------------------|-0-----------0---------------|
D|-4--------2-----------|-------0---0-----------------|
G|--------2-----0-------|-----0---4-------------------|
A|-0----0---------------|---2-------------------------|
D|----------------------|-5---------------------------|



D|---------4--5---------|-4-------2-------------------|
A|-------0--------------|-----2-------5---------------|
D|-----6----------------|-----------------------------|
G|---7----------0-------|---4---4---4---0-------------|
A|-0-------0------------|-2---------------------------|
D|----------------------|-----------------------------|



D|---0--------0---------|----0--------2---------------|
A|-4--------------------|-4---------------------------|
D|---------2------------|-----------0-----------------|
G|-------4------0-------|---------0-------------------|
A|----------------------|-----------------------------|
D|-4---4----------------|-5-----5---------------------|



D|-4----5-4--2--0-------|-0---5-----0-----------------|
A|-5---------4----------|-------9---------------------|
D|-4---------0----------|---------9-------------------|
G|---0------------------|-----------------------------|
A|-0---------0----------|-----------------------------|
D|----------------------|-9---------------------------|


Agora desliza o capo pra 4 casa
           > Capo casa 4

D|-2--------2-----------|
A|-------0---------0----|
D|-----0---------0------|
G|---2---------2--------|
A|-0--------0-----------|
D|----------------------|



D|-4--------2-----------|---0-------------------------|
A|------2-------5-------|-4----------4----------------|
D|----------------------|----------2------------------|
G|---4----4---4---0-----|--------4------0-------------|
A|-2--------------------|-----------------------------|
D|----------------------|-4----4----------------------|



D|----0--------2--------|-4-----5-4--2--0-------------|
A|-4--------------------|-5----------4----------------|
D|-----------0----------|-4----------0----------------|
G|---------0------------|----0------------------------|
A|----------------------|-0----------0----------------|
D|-5-----5--------------|-----------------------------|




D|-0-----------0--------|-------------0---------------|
A|-0-----0--------------|-------0---------------------|
D|-----4---4------------|-----4---4-------------------|
G|---4-------4----------|---4-------4-----------------|
A|-2--------------------|-2---------------------------|
D|----------------------|-----------------------------|



D|----0h2p0----0--------------|----------------0------|
A|----------4-------0---------|-0------------0--------|
D|--------------------0-------|-------0----0----------|
G|----------------------------|-----0----4------------|
A|-0--------------0-----------|---2------0------------|
D|----------------------------|-5---------------------|



D|-----0---5---0--------------|-----5----0------------|
A|-------9---9---0------------|---9---9------0--------|
D|----------------------------|-9---------------------|
G|---0------------------------|------------0----------|
A|----------------------------|-0-----0---------------|
D|-9--------------------------|-----------------------|



D|----------------------------|-----------------------|
A|--------0-----0-------------|-----------------------|
D|------0-----0---------------|-----------------------|
G|----0-----4-----------------|-2--0h2p0---0-2/4/2----|
A|--2-------------------------|-0--------4---0--------|
D|-5--------------------------|-----------------------|



D|-----------0---0------------|------4----------------|
A|-------------4--------------|-0---------------------|
D|---------2------------------|-----------------------|
G|-0-----4--------------------|-----------------------|
A|-----0----------------------|-----------------------|
D|---0------------------------|---0-------------------|
30.041 exibições

Comentários 9

  • felipe.vieira.543908 felipe.vieira.543908: Postado em 11/02/2014 13:27

    agora ta certo

  • ick ick: Postado em 29/11/2013 00:07

    eu toco essa música de outra forma. Fica boa, mas não tão quanto essa. Queria muito aprender a tocar essa música como esse cara toca.

  • João Victor João Victor: Postado em 11/11/2013 19:39

    adaptei

  • lucas.lourenco.58 lucas.lourenco.58: Postado em 27/10/2013 10:32

    Ta muito errado tem que desce um tom das cordas 1 2 e 6
    e tem muito + coisa

  • Thiago Thiago: Postado em 26/06/2013 21:23

    o começo ta certo, mais apartir da 3 parte ta tudo errado '='

  • hedysantosilvas hedysantosilvas: Postado em 07/02/2013 20:27

    so tem biccho no violao 4 consequiram isso

  • kingmu910 kingmu910: Postado em 23/09/2012 12:47

    ta horrivel faltando coisa de mais

  • danprophet danprophet: Postado em 23/05/2012 19:17

    Tá faltando mesmo!!!

  • hedysantosilvas hedysantosilvas: Postado em 22/02/2012 18:34

    como vcs conseguiram se ta fautando casa nessa corda G(sol)

Composição: Sabe quem é o compositor? Envie pra gente. Contribuição: Allan Correções: felipe.vieira.543908 »
Exibir acordes »
publicidade
fechar