Only Hope

Switchfoot

 Switchfoot
Tom: D
		
Intro 2x: 

Em7  G  Bm7  Em9  C9  G  C9  B5

Primeira Parte:

Em7            G             Bm7  Em9
    There's a song that's inside
       C9  G  C9  B5
Of my soul
Em7          G               Bm7  Em9
    It's the one that I've tried 
         C9       G      C9  B5
To write over and over again
Em7       G
    I'm awake in the 
Bm7  Em9   C9       G  C9  B5
In______finite cold
Em7          G         Bm7  Em9
    But you sing to me o________ver 
    C9        G    C9    B5
And over, and over again

Refrão:
      
      E5     E7M       A9
So I lay my head back down
       E5      E7M        A9
And I lift my hands and pray 
      C#m9
To be only yours
    A9       C#m9
I pray to be only yours
    C7M
I know now you're my only 
 Em7  G  Bm7  Em9  C9  G  C9  B5
Hope

Segunda Parte:

Em7          G          Bm7  E9
    Sing to me all the songs 
         C9  G  C9  B5
Of the stars
Em7          G      Bm7  Em9
    Of your galaxy dan_______cing 
     C9           G         C9  B5
And laughing and laughing again
Em7          G              Bm7  Em9
    When it feels like my dreams 
     C9    G  C9  B5
Are so far
Em7          G          Bm7  Em9
    Sing to me of the plans 
          C9         G      C9  B5
That you have for me over again

Refrão:
      
       E5     E7M       A9
And I lay my head back down
       E5      E7M        A9
And I lift my hands and pray 
      C#m9
To be only yours
    A9       C#m9
I pray to be only yours
    C7M
I know now you're my only hope

Interlúdio 2x:

Em7  G  Bm7  Em9  C9  G  C9  B5

Terceira Parte:

D9               E7(4)
   I give you my apathy
D9                E7(4)
   I'm giving you all of me
D9              E7(4)
   I want your symphony
 F#7(11)              B11
Singing in all that I am
        A9        B11
At the top of my lungs 
     A9        B11
I'm giving it back

Refrão Final:
      
       E5     E7M       A9
And I lay my head back down
       E5      E7M        A9
And I lift my hands and pray 
      C#m9
To be only yours
    A9       C#m9
I pray to be only yours
    A9       C#m9
I pray to be only yours
    C7M
I know now you're my only hope

Em7  G  Bm7  Em9  C9  G  C9  B5
Em7  G  Bm7  Em9  C9  G  C9  B5  Em

Dedilhado Intro e Primeira Parte:

Parte 1


   Em7           G
E|------------------------------------------|
B|------------------------------------------|
G|-------7-----------4----------------------|
D|-----5-----x------------------------------|
A|-5/7-----7-------5-----x------------------|
E|---------------3-----3--------------------|


Parte 2


   Bm7           Em9
E|------------------------------------------|
B|------------------------------------------|
G|------------------------------------------|
D|-------7-----------4---x------------------|
A|-----5-----x-----2---2--------------------|
E|-5/7-----7-----0--------------------------|


Parte 3


   C9        G        C9       B5
E|------------------------------------------|
B|------3--------3--------3-----------------|
G|--------0--------0---------------4--------|
D|---2---------0--------2--------4----------|
A|-3------------------3-----3--2-----4------|
E|-----------3------------------------------|


Solo Intro:


E|----------------------------------------------------|
B|----------------------------------------------------|
G|-5/7-7-7-5\4--4\2-0------0--------------------------|
D|---------------------2h4----4-2\1-2-----------------|
A|----------------------------------------------------|
E|----------------------------------------------------|


Dedilhado Interlúdio:


   Em7    G      Bm7    Em9
E|------------------------------------------|
B|------------------------------------------|
G|---7-7----4-4-----------------------------|
D|---5-5-----------7-7----4-4---------------|
A|-7--------5-5----5-5----2-2---------------|
E|--------3------7------0-------------------|



   C9     G      C9     B5
E|------------------------------------------|
B|------------------------------------------|
G|---0-0----0-0----0-0----4-4---------------|
D|---2-2----0-0----2-2----4-4---------------|
A|-3-------------3------2-------------------|
E|--------3---------------------------------|

Comentários 4

  • vinicius vinicius: Postado em 06/04/2015 17:25

    //

  • deneradv7 deneradv7: Postado em 03/04/2015 00:50

    Aí sim hein! Show de vídeo-aula! Parabéns Léo Eymard!

  • victor victor: Postado em 13/05/2014 22:18

    queria saber solo da musica no inicio

  • Dandoidinho Dandoidinho: Postado em 07/10/2011 09:13

    falta um >>>Em no refrão dpos do B >>> Nessa parte '' I know now you?re my only hope.>>> TERMINA em MI MENOR >>. Em

Composição: Jon Foreman / Stevie Wonder
Esse não é o compositor? Avise-nos.
Contribuição: Luciano Meni Correções: Leo Eymard e mais 1 »
Exibir acordes »
publicidade
fechar