Soldier Side (Intro)

System Of a Down

 System Of a Down
Tom: F
		
Intro:


E|-----------------------------------------|
B|-----------------------------------------|
G|-2---2-3-2-1---1-----3-5/7\5-3-2---2-----|
D|-----------------------------------------|
A|-0---------0-----------------------------|
D|-3-3-------2-2---2-5-------------0---0---|



E|-----------------------------------------|
B|---------------------2---2-3-5-5---------|
G|-1---1-------1---------------------------|
D|-0-------2---------2---2-----------------|
A|-----------------0-----------------------|
D|-2-2---2---2---2-----------------0-------|


Verso:


E|------------------------------------------------------------------|
B|------------------------------------------------2---2-3-5-5-------|
G|----2------1------3------2----1---------1-------------------------|
D|---------------------------------2--2---------2---2---------------|
A|--------------------------------------------0---------------------|
D|-3----3-2----2-5----5-0---0-2--2----2---2---2-----------------0-----|



E|------------------------------------------------------------------|
B|----------------------------------------------------2---2-3-5-5---|
G|----2------1--------3------2--------1-------1---------------------|
D|-----------------------------0----------2---------2---2-----------|
A|------------------------------------------------0---------------0-|
D|-3----3-2----2-2-5----5-0------0-2----2---2---2-----------------0-|


Final:


E|-------------------------------------------------------------------------------|
B|--------------------------11/13-14\13-11-10---10---9---9-------9------------10-|
G|-10---10-11-10-9---9------12/14-15\14-12-------------------9-------10---9------|
D|----------------------------------------------------------------------7---7----|
A|-8--8----------7-7---7-10-------------------8----8---7---7---7---7-0-----------|
D|-------------------------------------------------------------------------------|

Comentários 27

  • ygorlimah ygorlimah: Postado em 16/02/2014 20:20

    Essa porra não ta certa não, vai tomar no cu

    • eduardo.buna.9 eduardo.buna.9: Postado em 06/09/2014 20:19

      cara para de chamar oque vc n sabe de errado

  • thalles96 thalles96: Postado em 29/05/2013 19:59

    Muito fácil porem cheio de erros, tive que faze na base do improviso pra dar certo

  • matthew_onagian matthew_onagian: Postado em 08/11/2012 21:52

    tem varios erros vei, acabei tendo q improvisa pra aprender. recomendo o mesmo, tem varios erros

  • matthew_onagian matthew_onagian: Postado em 08/11/2012 15:56

    tem 4 erros, falta de notas na intro e no meio. vo ver se consigo corrigir.

  • 3x6error404 3x6error404: Postado em 18/08/2012 01:47

    Mouto erro mesmo

  • pliniolucas7 pliniolucas7: Postado em 05/08/2012 19:49

    muito erro

  • lgear lgear: Postado em 24/05/2012 21:34

    facin de tocar essa ai

  • lgear lgear: Postado em 24/05/2012 21:33

    tem um errinho ai ainda

Exibindo 10 de 27 comentários Mostrar mais ver todos »
Composição: Daron Malakian
Esse não é o compositor? Avise-nos.
Contribuição: matheusroldao Correções: Gabriel e mais 2 »
Exibir acordes »
publicidade
fechar