Afinação em D (D,A,D,G)

Riff 1

G|---9---9---7---7---7-7---9---9---7---7---7-7---|
D|-0---0---0---0---0---------0---0---0---0-------|
A|-----------------------------------------------|
D|-----------------------0---------------------0-|

G|---10---9---12---10---9-10---------------------|
D|-0----0---0----0----0--------------------------|
A|-----------------------------------------------|
D|----------------------------0------------------|

G|---10---9---12---10---9-10---------------------|
D|-0----0---0----0----0--------------------------|
A|-----------------------------------------------|
D|----------------------------0------------------|

Riff 2

G|-----------------------------------|
D|-----------------------------------|
A|-----------------------------------|
D|-9-9-9-9-9-9-9-9-9-9-9-9-9-9-9-9-9-|

Riff 3

G|---------------------------------------------------------------------|
D|---------------------------------------------------------------------|
A|---------------------------------------------------------------------|
D|-9-9-9-9-9-9-9-9-9-9-9-9-9-9-9-9-9-8-8-8-8-8-8-8-8-8-8-8-8-8-8-8-8-8-|

Comentários 2

  • danilorocks2 danilorocks2: Postado em 07/09/2013 11:21

    Fácil demais, é só ter o conpasso

  • slayer2596 slayer2596: Postado em 13/05/2012 21:27

    Corda 2 afinação C.

Composição: Arthur Kent / C. Moore / David Guppy / L. "D.B." Crump
Esse não é o compositor? Avise-nos.
Contribuição: Kiguti
publicidade
fechar