La Bamba

Temas de Filmes

 Temas de Filmes
Tom: C
		
Intro:

E|--------------------|-----------------------------|
B|--------------------|-----------------------------|
G|---------------2-0--|-----------------------2-0---|
D|---------2---3------|-------0-3-3-2-0----3--------|
A|---0-2-3---3--------|-----2------------3----------|
E|-3------------------|---3-------------------------|


               C    F  G     F            C
Para bailar la bamba,      Para bailar la bamba,
   F   G      F        C     F  G    F         C      F
se necesita un poca de gracia,     una poca de gracia para mi para
G   F          C  F  G F        C         F     G F
tiy ariba y ariba,     ay ariba ariba por ti se re
          C       F     G F
por ti se re, por ti se re
          C       F  G     F         C
yo no soy marinero,    yo no soy marinero
    F   G   F        C        F   G F
soy capitan, soy capitan, soy capitan
C  F   G    F
bamba, bamba
C  F   G    F
bamba, bamba
C  F   G    F
bamba, bamba
C F G F
bamba
               C     F  G   F             C
Para bailar la bamba,      Para bailar la bamba,
   F   G       F       C     F  G     F       C      F
se necesita un poca de gracia,    una poca de gracia para mi para
G      F      C    F  G  F
tiy ariba y ariba
Solo:

E|----------------------------|-----------------------------|
B|----------------------------|-------0--0(h)2--0------0----|
G|-------(tr)-0---------------|-0--2----------------2-----2-|
D|----------------------------|-----------------------------|
A|----------------------------|-----------------------------|
E|----------------------------|-----------------------------|



E|----------------------------|-----------------------------|
B|----------------------------|-----------------------------|
G|--0--2--0-----0--------0----|-----------------------------|
D|-----------3-----2--3-------|-2--3--0--2-----0------------|
A|----------------------------|-------------3-----2--3--0---|
E|----------------------------|-----------------------------|



E|----------------------------|-----------------------0--1--|
B|----------------------------|--------------0--1--3--------|
G|----------------------------|--------0--2-----------------|
D|-------------------------0--|--2--3-----------------------|
A|-2-----0--------0--2--3-----|-----------------------------|
E|----3-----1--3--------------|-----------------------------|


      (tremolo for 1 bar)

E|-----0--1-----0--1----------|----------(tr)-3-------------|
B|--3--------3----------------|-----------------------------|
G|----------------------------|-----------------------------|
D|----------------------------|-----------------------------|
A|----------------------------|-----------------------------|
E|----------------------------|-----------------------------|



E|--------3/12\3--------------|-5--3(h)5(p)3--1(h)3(p)1(p)0-|
B|----------------------------|-----------------------------|
G|----------------------------|-----------------------------|
D|----------------------------|-----------------------------|
A|----------------------------|-----------------------------|
E|----------------------------|-----------------------------|



E|-1-----0--------0-----------|-----------------------------|
B|----3-----1--3-----1--3-----|--0(h)1(p)0-----0------------|
G|----------------------------|-------------2-----2---------|
D|----------------------------|-----------------------------|
A|----------------------------|-----------------------------|
E|----------------------------|-----------------------------|



E|----------------------------|-----------------------------|
B|----------------------------|-----------------------------|
G|--0(h)2(p)0-----0--------0--|-----------------------------|
D|-------------3-----2--3-----|---2--3----------------------|
A|----------------------------|---------2(h)3(p)2(p)0-------|
E|----------------------------|------------------------3----|


   (tremolo for 1 bar)              (tremolo for 1 bar)

E|----------------------------|--0--1--(tr)-3---------------|
B|----------------------------|-----------------------------|
G|-------------(tr)-0---------|-----------------------------|
D|---0--2--3------------------|-----------------------------|
A|----------------------------|-----------------------------|
E|----------------------------|-----------------------------|



E|----------------------------|------------------------------|
B|----------------------------|-----------1--0---------------|
G|----------------------------|--0--0--2--2--0-------0--2--2-|
D|----------------------------|--2--0--3----------0--0--3--3-|
A|------0--2--7\--------------|----------------2--2----------|
E|---3--------8\--------------|----------------3-------------|



E|----------------------------||
B|---------------------1--0---||
G|---0--0-----0--0--2--2--0---||
D|---2--0--2--2--0--3---------||
A|---------3------------------||
E|----------------------------||


               C     F  G      F          C
Para bailar la bamba,      Para bailar la bamba,
   F   G        F      C     F  G        F     C      F
se necesita un poca de gracia,     una poca de gracia para mi para
G   F        C    F  G      F     C       F     G  F
tiy ariba y ariba,     ay ariba ariba por ti se re
          C       F     G F
por ti se re, por ti se re

C  F   G    F
bamba, bamba
C  F   G    F
bamba, bamba
C  F   G    F
bamba, bamba
C  F   G    F
bamba, bamba
Texto Colunas
Alterar tom ½ tom ½ tom
afinação acordes na letra esconder tabs mais »
360.159 exibições

Comentários (9)

  • nathan14 nathan14: Postado em 08/11/2011 23:19

    na parte do acorde G, eu mudei. Eu toquei em forma de pestana

  • rogerio_silva rogerio_silva: Postado em 09/10/2011 04:31

    E sem essa de capo ou mudar o tom da musica para ficar mais fácil,meu amigo se vc for sempre no mais fácil vc só será apenas mais um.

  • rogerio_silva rogerio_silva: Postado em 09/10/2011 04:29

    Para facilitar um pouco toque o Sol com pestana,e a mesma forma do Fá,é só descer duas casas.

  • rogerio_silva rogerio_silva: Postado em 09/10/2011 04:26

    C baixo baixo cima, F baixo cima baixo, G cima cima baixo cima, F baixo cima baixo cima.

  • guilherme.k guilherme.k: Postado em 03/10/2011 14:26

    Toque C 2x para baixo, F 2x também para baixo e G 5x cima, baixo, cima ,baixo, cima ;D

  • dodo1303 dodo1303: Postado em 25/08/2011 12:19

    É qase mesma coisa q twist and shout dos beatles

  • JPSMS JPSMS: Postado em 02/06/2011 17:50

    dica versão em D muito mais facil

  • JPSMS JPSMS: Postado em 28/05/2011 11:47

    ponha o capotraste na 3ª casa e aumente um tom fica muito mais facil

  • Matheussxd Matheussxd: Postado em 08/04/2011 13:00

    *.*

Composição: Sabe quem é o compositor? Envie pra gente. Contribuição: Bilo Correções: wrecked_w , felesanack e mais 3 »
  1. Tudo Que Você Quiser - Luan Santana Manteve-se 5.417 exibições
  2. Lepo Lepo - Psirico Manteve-se 3.901 exibições
  3. Mozão - Lucas Lucco Manteve-se 3.749 exibições
  4. Logo Eu - Jorge e Mateus Manteve-se 3.341 exibições
  5. Gaveta - Fernando e Sorocaba Manteve-se 2.999 exibições
  6. Só Os Loucos Sabem - Charlie Brown Jr. Manteve-se 2.698 exibições
  7. Pra Você - Onze:20 Manteve-se 2.391 exibições
  8. Tempo Perdido - Legião Urbana Manteve-se 2.189 exibições
  9. Fui Fiel - Gusttavo Lima Manteve-se 2.019 exibições
  10. Na Linha do Tempo - Victor e Leo Manteve-se 1.925 exibições
  1. Jorge e Mateus- Manteve-se 20.025 exibições
  2. Legião Urbana- Manteve-se 17.810 exibições
  3. Luan Santana- Manteve-se 15.901 exibições
  4. Charlie Brown Jr.- Manteve-se 15.521 exibições
  5. Fernandinho- Manteve-se 13.364 exibições
  6. Thalles Roberto- Manteve-se 10.046 exibições
  7. Aline Barros- Manteve-se 9.582 exibições
  8. Católicas- Manteve-se 9.431 exibições
  9. Victor e Leo- Manteve-se 9.367 exibições
  10. Gusttavo Lima- Manteve-se 8.996 exibições
Exibir acordes »

Cifras e tabs

Fórum Cifra Club

Aprenda

Cifra Club News

Mais Serviços Cifra Club ID

Studio Sol

©1996 - 2014 Cifra Club · o primeiro, maior e mais acessado do Brasil · 329 mil músicas · 5.9 milhões pessoas cadastradas

publicidade
fechar