Os Caça Fantasmas (Ghostbusters)

Temas de Filmes

 Temas de Filmes
Tom: B
		
a base durante os versos é essa:


e|------------|------------
B|------------|------------
G|------------|------------
D|--9---7--2--|--9---7--2--
A|--9---7--2--|--9---7--2--
E|--7---5--0--|--7---5--0--


o solinho famoso é assim:


e|---------------------------------
B|---------------------------------
G|------8---6----------------------
D|--9-9---9---7----9-9-9-9-7-9-----
A|---------------------------------
E|---------------------------------



e|---------------------------------
B|---------------------------------
G|------8---6----------------------
D|--9-9---9---7----9-9-9-9-7-11-9--
A|---------------------------------
E|---------------------------------


ou voce pode tocar assim tbm:


e|--------------------------------
B|--------------------------------
G|--------------------------------
D|--------------------------------
A|------6---4---------------------
E|--7-7---7---5----7-7-7-7-5-7----



e|--------------------------------
B|--------------------------------
G|--------------------------------
D|--------------------------------
A|------6---4---------------------
E|--7-7---7---5----7-7-7-7-5-9-7--


o refrao e o seguinte:


e|----------------------------------------
B|----------------------------------------
G|--7-----7-----7-----7-----7-------------
D|-----9-----9-----9-----9-----9---7-8-9--
A|----------------------------------------
E|----------------------------------------


ou, se vc tocou na sexta corda:


e|----------------------------------------
B|----------------------------------------
G|----------------------------------------
D|----------------------------------------
A|--5-----5-----5-----5-----5-------------
E|-----7-----7-----7-----7-----7---5-6-7--


e isso ai e tudo.

Comentários 2

  • Gustavo Gustavo: Postado em 08/12/2014 21:36

    facil

  • brunohawk brunohawk: Postado em 27/05/2011 11:52

    muito legal ausdhsaudhuasd

Exibir acordes »
publicidade
fechar