Pantera Cor de Rosa

Temas de Filmes

 Temas de Filmes
Tom: G
		
Legenda:
h  - hammer-on
p  - pull-off
b  - bend (será realizado desde a nota antes do "b" até a após o "b")
bb - bend (você deverá fazer o bend e voltar à nota anterior)
/  - slide (/x você fará o slide para notas mais graves, quais você desejar...)
.  - deverá prolongar a nota



                                   Pantera Cor-de-Rosa///



E------------------------------
B------------------------------
G------------------------------
D------------------------------
A------6h7.--------6h7.--------
E--8h9---------8h9-------------



E---------------------------------------------------------------
B---------------------------------------------------------------
G---------------------------------------------------------------
D----------------------------10p9-----9p7b8-7-------------------
A------6h7---9h10---6h7-9h10------7h9---------10p7----7-7/x-----
E--8h9---------------------------------------------10-----------



E---------------------------------------------------------------
B---------------------------------------------------------------
G-------------------------------------9p7b8.--------------------
D----------------------------10p9-------------------------------
A------6h7---9h10---6h7-9h10------7h9---------------------------
E--8h9----------------------------------------------------------



E---------------------------------------------------------------
B---------------------------------------------------------------
G---------------------------------------------------------------
D----------------------------10p9-----9p7b8-7-------------------
A------6h7---9h10---6h7-9h10------7h9---------10p7----7-7/x-----
E--8h9---------------------------------------------10-----------



E-10h12--10-----------------------------------------------------
B-----------12--10---------10--10--10--10-----------------------
G-------------------12--9--------------------0------------------
D--------------------------------------------0-2--0--2-2--------
A----------------------------------------------2--0--2-2--------
E---------------------------------------------------------------

Comentários 0

Exibir acordes »
publicidade
fechar