Rei Leão

Temas de Filmes

 Temas de Filmes
Tom: G
		
(intro)

          G           C9        G           D
E |---|-10~~~~~~--|----8-10-8-|-7---------|----------
B |---|-----------|-----------|-----7-7-7-|-7~~~~----
G |-7-|-----------|-----------|-----------|----------
D |---|-----------|-----------|-----------|----------
A |---|-----------|-----------|-----------|----------
E |---|-----------|-----------|-----------|----------



          G           C9         G           D
E |---|-----------|-----------|-----------|----------
B |---|-3~~~~~~~~-|-----1-3-1-|-0---------|----------
G |---|-----------|-----------|-----0-0-0-|-0~~~~~~--
D |-0-|-----------|-----------|-----------|----------
A |---|-----------|-----------|-----------|----------
E |---|-----------|-----------|-----------|----------



      G                               D
E |---5-7-9-7-9-10-9-7-5-7-9-7-5-9-7|------------
B |-------------------------------|--------------
G |-------------------------------|--------------
D |-------------------------------|--------------
A |-------------------------------|--------------
E |-------------------------------|--------------



      G               C9             G               D
E |-12-9-7-9-12-10-9-7-5-7-9-7-5-9-7---|---------------
B |--------------|---------------|---------------|-----
G |--------------|---------------|---------------|-----
D |--------------|---------------|---------------|-----
A |--------------|---------------|---------------|-----
E |--------------|---------------|---------------|-----


 G
In the jungle, the mighty jungle
                   D
The lion sleeps tonight
 G                 C9
In the jungle the quiet jungle
     G             D
The lion sleeps tonight

 G
Near the village the peaceful village
                   D
The lion sleeps tonight
 G                 C9
Near the village the quiet village
     G             D
The lion sleeps tonight

 G
Hush my darling don't fear my darling
                   D
The lion sleeps tonight
 G                   C9
Hush my darling don't fear my darling
     G             D
The lion sleeps tonight
133.317 exibições

Comentários 0

Composição: não sei
Esse não é o compositor? Avise-nos.
Contribuição: RRS !
Exibir acordes »
publicidade
fechar