Star Wars - Marcha Imperial

Temas de Filmes

 Temas de Filmes
Tom: G
		
Intro 4x: É só pegar o ritmo


E|-----------------------------------
B|-----------------------------------
G|-----------------------------------
D|-----------------------------------
A|-10-10--10-10-10--10-10--6-6-6-6---
E|-----------------------------------


Riff principal:

E|-----------------------|---------------------
B|-----------------------|---------------------
G|-----------------------|--7-7-7-8------------
D|-------------8-5---8-5-|----------9-5----8-5-
A|-10-10-10--6-----6-----|---------------6-----
E|-----------------------|---------------------



E|-------------------------------------
B|--8------8-7-6-----------------------
G|---------------9-8-9-----6-5-4-------
D|----5-5---------------6--------8-7-8-
A|-------------------------------------
E|-------------------------------------



E|---------------------------------
B|---------------------------------
G|------------------7-7------------
D|----5---8-5--8-5-----------------
A|--6---6--------------------------
E|---------------------------------



E|-------------------------------------
B|--8------8-7-6-----------------------
G|---------------9-8-9-----6-5-4-------
D|----5-5---------------6--------8-7-8-
A|-------------------------------------
E|-------------------------------------



E|--------------------------
B|--------------------------
G|--------------------------
D|----5----8-5-----8-5------
A|--6----6------6-----------
E|--------------------------

Comentários 8

  • eric eric: Postado em 26/12/2013 15:42

    Muito fácil.

  • mauzayat mauzayat: Postado em 12/03/2012 01:09

    facinho ..... soh toca todos os dias 5 min a tab em 3 ou 4 dias vc tah melhor q o john willians...

  • qrotocarlogo qrotocarlogo: Postado em 19/02/2012 21:26

    concordo kaio6felipe,isso eh mais facil que indios do legiao urbana

  • kaio6felip kaio6felip: Postado em 19/12/2011 12:20

    meus deus quem der trabalho pra aprende isso , abando o violao ou guitarra e escolhe outra coisa

  • guinerdd guinerdd: Postado em 19/12/2011 11:41

    dart violãoeider

  • foxieladie foxieladie: Postado em 09/08/2011 18:14

    ou não.

  • multipedro multipedro: Postado em 03/08/2011 18:22

    q merda

  • daniation daniation: Postado em 24/05/2011 21:10

    e só pegar o ritimo né

Composição: Sabe quem é o compositor? Envie pra gente. Contribuição: Kelvin
Exibir acordes »
publicidade
fechar