Titanic

Temas de Filmes

 Temas de Filmes
Tom: A
		
Violão Solo

Introdução


E|------------------7---4-7-7/9---7-------|------------------7---4-7-7/9---7-------|
B|-5-7-7/9---7/5/7------------------9-7---|-5-7-7/9---7/5/7------------------9-5---|
G|----------------------------------------|----------------------------------------|
D|----------------------------------------|----------------------------------------|
A|----------------------------------------|----------------------------------------|
E|----------------------------------------|----------------------------------------|


Base


E|----------------------------------------|----------------------------------------|
B|-5--5-5/4-4-5---5-5-5-5-7-9--7----------|-5--5-5/4-4-5---4-0---------------------|
G|----------------------------------------|----------------------------------------|
D|----------------------------------------|----------------------------------------|
A|----------------------------------------|----------------------------------------|
E|----------------------------------------|----------------------------------------|


Refrão


E|---------------------------------------------------------------------------------|
B|-5---5-5/7--7/9---9/12--10--9-7---9--9/10-9---7--4--4/5---5-4-5-5-7--7/9--7------|
G|---------------------------------------------------------------------------------|
D|---------------------------------------------------------------------------------|
A|---------------------------------------------------------------------------------|
E|---------------------------------------------------------------------------------|



Violão Base

Introdução


E|---------0---------------2---------------0---------------2-----------------------|
B|-------0---0---0-------4---4---4-------2---2---2-------4---4---4-----------------|
G|-----1-------1-------4-------4-------2-------2-------4-------4-------------------|
D|---2---------------4---------------2---------------4-----------------------------|
A|-----------------2---------------0---------------2-------------------------------|
E|-0-------------------------------------------------------------------------------|



E|---------0---------------2---------------0-------0-------------------------------|
B|-------0---0---0-------4---4---4-------2---2---2-0-------------------------------|
G|-----1-------1-------4-------4-------2-------2---2-------------------------------|
D|---2---------------4---------------2-------------2-------------------------------|
A|-----------------2---------------0---------------0-------------------------------|
E|-0-------------------------------------------------------------------------------|


Base


E|---------0---------------2---------------0---------------2-----------------------|
B|-------0---0---0-------4---4---4-------2---2---2-------4---4---4-----------------|
G|-----1-------1-------4-------4-------2-------2-------4-------4-------------------|
D|---2---------------4---------------2---------------4-----------------------------|
A|-----------------2---------------0---------------2-------------------------------|
E|-0-------------------------------------------------------------------------------|


Refrão

E  D7  A7  D7  C#m  D7  A7  D7


Violão Baixo

Base


E|---------------------------------------------------------------------------------|
B|---------------------------------------------------------------------------------|
G|---------------------------------------------------------------------------------|
D|---------------------------------------------------------------------------------|
A|-----------------2------------------------------2--------------------------------|
E|-0------------5---------------4--5-----------4-----------------------------------|


Refrão


E|---------------------------------------------------------------------------------|
B|---------------------------------------------------------------------------------|
G|---------------------------------------------------------------------------------|
D|---------------------------------------------------------------------------------|
A|-----------------2---------------------------4--2--------------------------------|
E|-0------------5---------------4--5-----------------------------------------------|



E|---------------------------------------------------------------------------------|
B|---------------------------------------------------------------------------------|
G|---------------------------------------------------------------------------------|
D|---------------------------------------------------------------------------------|
A|-4---------------2---------------------------4--2--------------------------------|
E|--------------4---------------4--5-----------------------------------------------|

Comentários 49

  • Wallace Wallace: Postado em 28/07/2014 21:19

    Tá errado. O tom se não me engano é E.

  • amaral.net.5 amaral.net.5: Postado em 17/06/2014 20:17

    video aula por favor estou aprendendo e queria muito tocar essa!

  • Francine Francine: Postado em 16/06/2014 12:32

    Cooonsegui ;)

  • karol karol: Postado em 21/04/2014 15:03

    wool consegui

  • karol karol: Postado em 21/04/2014 14:57

    alguem fala o ritmo

  • herminio herminio: Postado em 17/03/2014 01:01

    nao sail no ritmo

  • matheus matheus: Postado em 21/01/2014 12:01

    muito facil

  • Julia Julia : Postado em 16/10/2013 20:21

    consegui !!

  • Weslley Weslley: Postado em 06/10/2013 18:33

    o tom dela é de E, e não de A

  • Weslley Weslley: Postado em 06/10/2013 18:33

    j

Exibindo 10 de 49 comentários Mostrar mais ver todos »
Composição: Sabe quem é o compositor? Envie pra gente. Contribuição: shaolin Correções: thiagoda.silvaamorim.5 e mais 2 »
Exibir acordes »
publicidade
fechar