A Pantera Cor de Rosa

Temas de TV

 Temas de TV Compositor: Temas diversos
Tom: E
		
Solo: (bate nas cordas 3x pra começar)

E|--------------------------|
B|--------------------------|
G|--------------------------|
D|--------------------------|  2x 
A|--------------------------|
E|-2-3-4-5---5-4-3-2--------|


2º Parte do solo:

E|-------------------------------------------|
B|-------------------------------------------|
G|-------------------------------------------|  2x 
D|-------------------------------------------|
A|------------------------------9-8----------|
E|-7-7-9h10--5h6-9-10-7-10-9-10------7-7-5-7-|


3º Parte do solo:

E|---------------------------------|
B|---------------------------------|
G|---------------------------------|
D|-9-8-9-7-------------------------|
A|---------9-7--------7h8-7h8-7h8--|
E|-------------7-10-7--------------|

Comentários 0

Exibir acordes »
publicidade
fechar