A Pantera Cor de Rosa

Temas de TV

 Temas de TV Compositor: Temas diversos
Tom: E
		

e|------------------------------------------------------------------------------------------------------------------------------------------------|
B|------------------------------------------------------------------------------------------------------------------------------------------------|
G|------------------------------------------------------------------------------------------------------------------------------------------------|
D|---------------------------------------4/5-------------------------4/5-----------------9/8--------4/5--------------9/7-7-7-7-7-7-7-7-7--|
A|------------4/5-6/7------------------4/5----------6/7------------4/5-----------------9/8--------4/5--------------9/7-7-7-7-7-7-7-7-7--|
E|------------4/5-6/7--------------------------------6/7----------------------------------------------------------------------------------------|




e|------------------------------------------------------------------------------------------------------------------------------------------------|
B|------------------------------------------------------------------------------------------------------------------------------------------------|
G|------------------------------------------------------------------------------------------------------------------------------------------------|
D|---------------------------------------4/5-------------------------4/5-----------------9/8--------4/5--------------9/7-7-7-7-7-7-7-7-7--|
A|------------6/7------------------4/5----------6/7------------4/5-----------------9/8--------4/5--------------9/7-7-7-7-7-7-7-7-7------|
E|------------6/7--------------------------------6/7--------------------------------------------------------------------------------------------|



A5 A5 A5 A5 A5 A5 A5 A5 

B5 F#5 B5 F#5 B5 F#5 B5 F#5 B5 F#5 B5 F#5 B5 F#5 B5 F#5 A5 A5 G5 E5

E5

Comentários 0

Exibir acordes »
publicidade
fechar