Banco Itau

Temas de TV

 Temas de TV Compositor: Piccirillo93
Tom: G
		
Versão 1:

E|---------------------------------------|
B|-0--0-1--1-3--3-1--1-0--0-5--5-3--1-3--|
G|-0--0-0--0-0--0-0--0-0--0-0--0-0--0----|
D|---------------------------------------|
A|---------------------------------------|
E|---------------------------------------|


Versão 2: 

   G       Am7     G/B   Am7     G       C       G/B     Am7   G 
E|-3---3-------------------------3---3-------------------------3-|
B|-0---0---1---1---3---3-1---1---0---0---5---5---3---3---1---1-3-|
G|---0---0-0-0-0-0-0---0-0-0-0-0---0---0-0---0---0---0---0-0-0-0-|
D|-------------------------------------------------------------0-|
A|---------0---0---2-2-2-0---0-----------3-3---3-2-2-2-2-0---0-2-|
E|-3-----------------------------3-----------------------------3-|

Comentários 1

  • arlesis arlesis: Postado em 11/10/2012 14:00

    eu ja conhecia

Composição: Sabe quem é o compositor? Envie pra gente. Contribuição: Piccirillo93 Correções: stiegler , Scalfa e mais 3 »
Exibir acordes »
publicidade
fechar