Beyblade

Temas de TV

 Temas de TV
Tom: D
		

e|------------------------------------------------|
B|------------------7-----------------------------|
G|---9--9--7--9--7-----7--7------9--7------9--7---|
D|----------------------------7---------7---------|
A|------------------------------------------------|
E|------------------------------------------------|




e|----------------------5-------------------------------|
B|---7--7-----------7-----------------------------------|
G|---------7--9--7-----------7-------9---7------9---7---|
D|---------------------------------7---------7----------|
A|------------------------------------------------------|
E|------------------------------------------------------|
34.117 exibições

Comentários 0

Consegui tocarAinda não conseguiram tocar essa música. Seja o primeiro!
    Não consegui tocar
    Exibir acordes »
    publicidade
    fechar