Cavaleiros do Zodiaco - Blue Dream

Temas de TV

 Temas de TV
Tom: C
		
faça o solo ouvindo a musica que vai ficar igualzinho


e|------0-----0-------------0-------0-----------|
B|---------------3-1-3--------3-1-----3-0-------|
G|--2------------------2----------2-------0-2---|
D|----------------------------------------------|
A|----------------------------------------------|
E|----------------------------------------------|



e|------0-----0---------------------------------|
B|---------------3-1-3-----------0-1-3-0--------|
G|--2------------------2-----0-2---------0-2----|
D|-------------------------3--------------------|
A|----------------------------------------------|
E|----------------------------------------------|




e|--------------1-0---0----1-0------------------|
B|-----1-3-0--------3-----------3-3-1-3-0-------|
G|--2--------0----------------------------------|
D|----------------------------------------------|
A|----------------------------------------------|
E|----------------------------------------------|




e|------0--0-1-5-3-1-------5-3-1-0--------------|
B|----3--------------3--3----------1-3----------|
G|--2-------------------------------------------|
D|----------------------------------------------|
A|----------------------------------------------|
E|----------------------------------------------|




e|------0--0-1-5-3-1-------5-3-1-0--------------|
B|----3--------------3--3----------1-3----------|
G|--2-------------------------------------------|
D|----------------------------------------------|
A|----------------------------------------------|
E|----------------------------------------------|
29.186 exibições

Comentários 2

  • ricardo ricardo: Postado em 04/07/2014 13:40

    massa

  • jorgeuol jorgeuol: Postado em 07/08/2011 13:09

    show de bola!

Exibir acordes »
publicidade
fechar