Pokémon

Temas de TV

 Temas de TV
Tom: A#
		
E|----------------------------------------------------------------------|
B|----------3---3---3------3---1---------------------3---3---1-------3--|
G|------0--------------------------3---0-------------------------3------|
D|----------------------------------------------------------------------|
A|----------------------------------------------------------------------|
E|----------------------------------------------------------------------|
       E- sse meu jei     to  de  vi ver    quem   nun  ca foi  i  gua
E|----------------------------------------------------------------------|
B|---1------4---4---4----6---3---1----------3---3---1-------3-----------|
G|-----------------------------------3-----------------3----------------|
D|----------------------------------------------------------------------|
A|----------------------------------------------------------------------|
E|----------------------------------------------------------------------|
     al     a   minha     vida    é fa zer     o  bem ven     cer
E|----------------------------------------------------------------------|
B|-------3---3---3-------3---1-----------------3-----3------------------|
G|---0--------------------------3--0------------------------------------|
D|----------------------------------------------------------------------|
A|----------------------------------------------------------------------|
E|----------------------------------------------------------------------|
     o   ma  al Pe-  lo mun  do     vi  a   ja rei    ten    tan  do
E|----------------------------------------------------------------------|
B|---1-------3------1------4---4---4----6---3---1-----------3---3---1---|
G|-------3-----------------------------------------3--------------------|
D|----------------------------------------------------------------------|
A|----------------------------------------------------------------------|
E|----------------------------------------------------------------------|
     en con tra- -ar          um  Po  ké mon e/com seu po der    tu  do
E|---------------------------|-------1---3-----------1---3---3---1------|
B|----------------3----------|---3-----------3---3----------------------|
G|----------3----------------|------------------------------------------|
D|---------------------------|------------------------------------------|
A|---------------------------|------------------------------------------|
E|---------------------------|------------------------------------------|
    trans for ma-   -aaarr            Po  ké mon ! te mos que pe gar
E|------------3---3---5---6---5---3---------3---3-------3---3---1-------|
B|---3----1----------------------------6----------------------------3---|
G|----------------------------------------------------------------------|
D|----------------------------------------------------------------------|
A|----------------------------------------------------------------------|
E|----------------------------------------------------------------------|
   vo cê     pe  gá los  eu ten  ta  re on !   jun tos  te  re mos que-
E|------------------------------------------1---3-----------1---3---3---|
B|---1---------3---3---1-------3---------3-----------3---3--------------|
G|-------3--3-------------3---------------------------------------------|
D|----------------------------------------------------------------------|
A|----------------------------------------------------------------------|
E|----------------------------------------------------------------------|
     -e  o  mun  do  de fen de- -eer    Po  ké mon ! te mos que pe gar
E|---1----------3---3---5---6---5---3-------------------6------6--------|
B|-------3--1---------------------------6------3---4--------------------|
G|----------------------------------------------------------------------|
D|----------------------------------------------------------------------|
A|----------------------------------------------------------------------|
E|----------------------------------------------------------------------|
     vo  cê     pe  gá los  eu ten  ta  re on !         vai ser    gran

E|---6-------6---5------6---6----5-------------1---3---3------1---3---3-|
B|-------6-------------------------------3--3------------3--3-----------|
G|----------------------------------------------------------------------|
D|----------------------------------------------------------------------|
A|----------------------------------------------------------------------|
E|----------------------------------------------------------------------|

    de a e- -mo ção     Po  ké mo- oon !

Comentários 0

Composição: Sabe quem é o compositor? Envie pra gente. Contribuição: gongas867 Correções: joni254 e mais 2 »
Exibir acordes »
publicidade
fechar