Tema Power Rangers

Temas de TV

 Temas de TV Compositor: Buckethead
Tom: C
		
Tema de Abertura - Power Rangers
Intro: Em  Em  Em  Em  C   D   B   Em D   C B

Intro

e|----------------------|------------------------|
B|----------------------|------------------------|
G|-------9-------9------|-9-------9-------9/10---|
D|-------9-------9------|-9-------9-------9/10---|
A|-------7-------7------|-7-------7-------7/8----|
E|--0-0-----0-0-----0-0-|----0-0-----0-0---------|


Solo Inicial

    C                                D
e|--------------------------------|------------------------------------|
B|--------------------------------|------------------------------------|
G|-12-9-5--12-9-5--12-9-5--12-9-5-|-14-11-7--14-11-7--14-11-7--14-11-7-|
D|--------------------------------|------------------------------------|
A|--------------------------------|------------------------------------|
E|--------------------------------|------------------------------------|


   B                                Em                Dm
e|--------------------------------|------------------------------------|
B|-12-7-4--12-7-4--12-7-4--12-7-4-|-12-8-5--12-8-5--12-8-5--12-8-5-----|
G|--------------------------------|------------------------------------|
D|--------------------------------|------------------------------------|
A|--------------------------------|------------------------------------|
E|--------------------------------|------------------------------------|


   C
e|--------------------------------|--------------------------------|---|
B|-13-8-5--13-8-5--13-8-5--13-8-5-|-13-8-5--13-8-5--13-8-5--13-8-5-|-12|
G|--------------------------------|--------------------------------|---|
D|--------------------------------|--------------------------------|---|
A|--------------------------------|--------------------------------|---|
E|--------------------------------|--------------------------------|---|



Rif 


e|------19-17-------------19-17-------------19-17-------------19-17---------17----------|
B|---17-------19-20----17-------20-19----17-------19-20----17-------20-19---------------|
G|--------------------------------------------------------------------------------------|
D|--------------------------------------------------------------------------------------|
A|--------------------------------------------------------------------------------------|
E|-0------------------------------------------------------------------------------------|





Em                     C    D
Go, go Power Rangers! 
Em                     C    D
Go, go Power Rangers! 
F
Go, go Power Rangers! Mighty Morphin Power Rangers! 
  

Em   Em   Em   Em    Em F F# G G# A B Bb

Em                     C    D
Go, go Power Rangers! 
Em                     C    D
Go, go Power Rangers!
F						   Em
Go, go Power Rangers! Mighty Morphin Power Rangers

Comentários 0

Exibir acordes »
publicidade
fechar