Atirei o Pau no Gato

Temas Diversos

Sem foto do Temas Diversos
ele só fica de fundo quando tem uma guitarra e bateria...

      H                       E  E  E  E     E  E  E  E   
G||------------|-----------|-----5-----5--|--------------|
D||*-----------|-----------|--------5-----|--------------|
A||*-----------|-----------|--3-----------|--3--5--7--8--|
E||------------|-----------|--------------|--------------|


   E   T. T. S S.  S  S    E   E  E  E     E  E  E  E     E  E  E  E   
------10-12----------12-|-----12--9--7--|-----5--5--5--|--------------|
------------------------|--5------------|--------------|--------------|
--10--------10----10----|---------------|--3-----------|--3--1--------|
---------------3--------|---------------|--------------|--------5--3--|


  Q    E  E     Q    E  E     E  E  E  E     E  E  E  E     E  E  E  E   
-------------|-------2--5--|--------------|-----5--------|--------------|
--3----------|--3----------|-----2--5--2--|--------------|--5--2-----5--|
-------2--3--|-------------|--3-----------|--3-----3--5--|--------5-----|
-------------|-------------|--------------|--------------|--------------|


  E  E  E  E     H           
--------------|------------||
--5--3--2-----|-----------*||
-----------5--|--3--------*||
--------------|------------||

Comentários 0

Composição: Sabe quem é o compositor? Envie pra gente. Contribuição: Guitar
Consegui tocarAinda não conseguiram tocar essa música. Seja o primeiro!
    Não consegui tocar
    publicidade
    fechar