Banjo Kazooie - Click Clock Wood

Temas Diversos

Sem foto do Temas Diversos Compositor: Grant Kirkhope
Tom: C
		

E |--------------------|------------------------|
B |--1--------1--------|--1---3-4---5-----------|
G |-----0h2p0----0h2p0-|-------------------5----|
D |--------------------|------------------------|
A |--3--------3--------|--3-----------3---------|
E |--------------------|------------------------|



|------------------------|----------------------|
|--0----0----0---------0-|----------------------|
|----------------2-0-----|----------------------|
|------------------------|-------3h5p3---2p0----|
|------------------------|----------------------|
|--3---------3-----------|--3-------------------|



|----------------------|--------------------|
|--0---------0---------|--0h1h2h3------0----|
|------0h2p0-----0h2p0-|--------------------|
|----------------------|--------------------|
|----------------------|--------------------|
|--3---------3---------|--3-------3---------|



|------------------------|----------------------|----------------------|
|--1----1----1---------1-|----------------------|--1---------1---------|
|----------------2p0-----|-------0----2----4----|------0h2p0-----0h2p0-|
|------------------------|----------------------|----------------------|
|--3---------3-----------|--3-------------------|--3---------3---------|
|------------------------|----------------------|----------------------|



|-------------------------|------------------------|
|--1---3h4h---5-----------|--0----0----0---------0-|
|--------------------5----|----------------2-0-----|
|-------------------------|------------------------|
|--3------------3---------|------------------------|
|-------------------------|--3---------3-----------|



|----------------------|----------------------|
|----------------------|--0---------0---------|
|----------------------|------0h2p0-----0h2p0-|
|-------3h5p3p--2p0----|----------------------|
|----------------------|----------------------|
|--3-------------------|--3---------3---------|



|--------------------|------------------------|-----------------------|
|--0h1h2h3------0----|--1----1----1---------1-|------1-----------0----|
|--------------------|----------------2p0-----|--------0----2---------|
|--------------------|------------------------|-----------------------|
|--------------------|--3---------3-----------|--3----------3---------|
|--3-------3---------|------------------------|-----------------------|



|--------------------|--0------------------|----------------------|
|---------------1----|-------1-------------|-----------------1----|
|--2--------2h4------|------------0--------|-0--2--------2h4------|
|--------------------|---------------------|----------------------|
|--------------------|--3---------3--------|----------------------|
|--1--------1--------|---------------------|----1--------1--------|



|--0-----------------|--------------------|--0--------------------|
|--------------------|---------------1----|-------1-----------3h5-|
|--------------------|--2--------2h4------|------------0----------|
|-------5p4h5h6p5----|--------------------|-----------------------|
|--3-----------------|--------------------|--3---------3----------|
|--------------------|--1--------1--------|-----------------------|



|------------3----3---5-|--3---3-------------------|------------------------|
|--6----3---------------|--------6---6-5---5-3---3-|--1---------------------|
|-----------------------|--------------------------|-------x---x-0----x---x-|
|-----------------------|--------------------------|-------x---x------x---x-|
|-----------------------|--------------------------|------------------------|
|--3---------3----------|--3-----------3-----------|------------------------|



|------------------------|-----------------------|--0---------------------|
|------------------------|--1----------3----4----|-------------1----------|
|--2----x---x-0----x---x-|-------x---x-----------|-------x---x------x---x-|
|-------x---x------x---x-|-------x---x-----------|-------x---x------x---x-|
|------------------------|-----------------------|------------------------|
|------------------------|-----------------------|------------------------|



|------------------------|------------------------|------------------------|
|--1---------------------|------------------------|------------------------|
|-------x---x-0----x---x-|--2----x---x-0----x---x-|-------x---x------x---x-|
|-------x---x------x---x-|-------x---x------x---x-|-------x---x----2-x---x-|
|------------------------|------------------------|--3---------------------|
|------------------------|------------------------|------------------------|



|----------------------------|
|--------------------------1-|
|-------x---x------x---x---0-|
|-------x---x----2-x---x---2-|
|--3-----------------------3-|
|----------------------------|
3.625 exibições

Comentários 0

Consegui tocarAinda não conseguiram tocar essa música. Seja o primeiro!
    Não consegui tocar
    Exibir acordes »
    publicidade
    fechar