Naruto Tema Principal

Temas Diversos

Sem foto do Temas Diversos
Tom: E
		
|                   E E E E E E E E   E E E E E E E E   E E E E E E E E 

E|-----------------|-----------------|-------0---------|-----------------| 
B|-----------------|-------1-3-1-----|-----1---3-1-3---|---------3-1---1-| 
G|-----------------|-2-0-2-------2-0-|---2-----------2-|-----0-2-----2---| 
D|-----------------|-----------------|-2---------------|-2-0-------------| 
A|-----------------|-----------------|-----------------|-----------------| 
E|-----------------|-----------------|-----------------|-----------------| 

   
                     E E E E E E E E   E E E E E E E E   E E E E E E E E 

E|-----------------|-----------------|-------0---------|-----------------| 
B|-----------------|-------1-3-1-----|-----1---3-1-3---|---------3-1---1-| 
G|-----------------|-2-0-2-------2-0-|---2-----------2-|-----0-2-----2---| 
D|-----------------|-----------------|-2---------------|-2-0-------------| 
A|-----------------|-----------------|-----------------|-----------------| 
E|-----------------|-----------------|-----------------|-----------------|  

 
 | E E E E E E E E   E E E E E E E E   E E E E E E E E   E E E E E E E E 

E|---0-------------|-----------------|-------0---------|-----------------| 
B|-----1-3---1-----|-------1-3-1-----|-----1---3-1-3---|---------3-1---1-| 
G|-2-------2---2-0-|-2-0-2-------2-0-|---2-----------2-|-----0-2-----2---| 
D|-----------------|-----------------|-2---------------|-2-0-------------| 
A|-----------------|-----------------|-----------------|-----------------| 
E|-----------------|-----------------|-----------------|-----------------| 

  
 | E E E E E E E E   E E E E E E E E   E E E E E E E E   E E E E E E E E 

E|---0-------------|-----------------|-------0---------|-----------------| 
B|-----1-3---1-----|-------1-3-1-----|-----1---3-1-3---|---------3-1---1-| 
G|-2-------2---2-0-|-2-0-2-------2-0-|---2-----------2-|-----0-2-----2---| 
D|-----------------|-----------------|-2---------------|-2-0-------------| 
A|-----------------|-----------------|-----------------|-----------------| 
E|-----------------|-----------------|-----------------|-----------------| 

 
                     E  Q.      Q      Q       E E.  S E H 

E|-----------------|-10-9+----(b9)-----------|-8-8---8-8-7---------| 
B|-----------------|-10-10+-----10-----------|-8-8---8-8-8---------| 
G|-----------------|-(b9)-9+--(b9)-----------|-7-7---7-7-7---------| 
D|-----------------|-------------------------|---------------------| 
A|-----------------|-------------------------|---------------------| 
E|-----------------|-------------------------|---------------------| 


                   E  Q.      E  S S S S E   E E.  S E E E   E E 

E|-----------------|-------------------------|---------------------| 
B|-----------------|-------------------------|---------------------| 
G|-----------------|-2--2-------2--2-2+2-2-2-|-0-0---0-0-0-0---0-0-| 
D|-----------------|-2--2-------2--2-2+2-2-2-|-0-0---0-0-0-0---0-0-| 
A|-----------------|-0--0-------0--0-0+0-0-0-|---------------------| 
E|-----------------|-------------------------|-3-3---3-3-3-3---3-3-| 

   

E|-----------------|-------------------------|---------------------| 
B|-----------------|-------------------------|---------------------| 
G|-----------------|-------------------------|---------------------| 
D|-----------------|-------------------------|---------------------| 
A|-----------------|-------------------------|---------------------| 
E|-----------------|-------------------------|---------------------| 

 
 | E E E E E E E E   E  E   E E E  S S S S E   E E  E  E E S S Q 

E|---0-------------|----5---3-5-0--------0---|---5--3--5-8-7-#55---| 
B|-----1-3---1-----|---------------1-3+3---1-|---------------------| 
G|-2-------2---2-0-|-------------------------|---------------------| 
D|-----------------|-------------------------|---------------------| 
A|-----------------|-------------------------|---------------------| 
E|-----------------|-------------------------|---------------------| 


 | E E E E E E E E   E  E   E E E  S S S S E   E E  E  E E S S Q 

E|---0-------------|----5---3-5-0--------0---|---5--3--5-8-7-#55---| 
B|-----1-3---1-----|---------------1-3+3---1-|---------------------| 
G|-2-------2---2-0-|-------------------------|---------------------| 
D|-----------------|-------------------------|---------------------| 
A|-----------------|-------------------------|---------------------| 
E|-----------------|-------------------------|---------------------| 

 
   E Q.     Q     Q       E  E.   S E E.    S  SS E   E  Q.      Q      Q 

E|-5-#5-----5-----------|-5--5----5-5-7-----7---7-7-|-10-9+------(b9)-----------| 
B|-8-7M-----7-----------|-6--6----6-6-8-----8---8-8-|-10-10+-----10-----------| 
G|-7-7M-----7-----------|-5--5----5-5-7-----7---7-7-|-(b9)-9+----(b9)-----------| 
D|----------------------|---------------------------|-------------------------| 
A|----------------------|---------------------------|-------------------------| 
E|----------------------|---------------------------|-------------------------| 


 | E Q.     E S S S S E   S E  S E  E S  E  S  E  E   E  Q.      E  S S S S E 

E|----------------------|---------------------------|-------------------------| 
B|-3-3------3-3-3+3-3-3-|---------------------------|-------------------------| 
G|-2-2------2-2-2+2-2-2-|-------------0--0--0--0--0-|-2--2-------2--2-2+2-2-2-| 
D|-0-0------0-0-0+0-0-0-|-3-3--3-3--3-0--0--0--0--0-|-2--2-------2--2-2+2-2-2-| 
A|----------------------|-3-3--3-3--3---------------|-0--0-------0--0-0+0-0-0-| 
E|----------------------|-1-1--1-1--1-3--3--3--3--3-|-------------------------| 

 | 


E|----------------------|---------------------------|-------------------------| 
B|----------------------|---------------------------|-------------------------| 
G|----------------------|---------------------------|-------------------------| 
D|----------------------|---------------------------|-------------------------| 
A|----------------------|---------------------------|-------------------------| 
E|----------------------|---------------------------|-------------------------| 


 | E E  E E E S S S S E   E  E   E  E E   S S  E  E   E  E   E E E  S S S S E 

E|---5--3-5-0-------0---|----5---3--5-8---7-#5-5--3-|----5---3-5-0--------0---| 
B|------------1-3+3---1-|---------------------------|---------------1-3+3---1-| 
G|----------------------|---------------------------|-------------------------| 
D|----------------------|---------------------------|-------------------------| 
A|----------------------|---------------------------|-------------------------| 
E|----------------------|---------------------------|-------------------------| 


 | E E  E E E S S S S E   E  E   E  E E   S S  E  E   E  E   E E E  S S S S E 

E|---5--3-5-0-------0---|----5---3--5-8---7-#5-5--3-|----5---3-5-0--------0---| 
B|------------1-3+3---1-|---------------------------|---------------1-3+3---1-| 
G|----------------------|---------------------------|-------------------------| 
D|----------------------|---------------------------|-------------------------| 
A|----------------------|---------------------------|-------------------------| 
E|----------------------|---------------------------|-------------------------| 


   E E.  S E H           E Q.     Q     Q       E  E.  S  E  H 

E|-8-8---8-8-7---------|-5-#5-----5-----------|-10-10--10-10-(b9)-----------| 
B|-8-8---8-8-8---------|-8-7M-----7-----------|-10-10--10-10-10-----------| 
G|-7-7---7-7-7---------|-7-7M-----7-----------|-(b9)-(b9)--(b9)-(b9)-(b9)-----------| 
D|---------------------|----------------------|---------------------------| 
A|---------------------|----------------------|---------------------------| 
E|---------------------|----------------------|---------------------------| 


 | E E.  S E E E   E E   E Q.     E S S S S E   E  Q.        E  S S S S E 

E|---------------------|----------------------|---------------------------| 
B|---------------------|-3-3------3-3-3+3-3-3-|---------------------------| 
G|-0-0---0-0-0-0---0-0-|-2-2------2-2-2+2-2-2-|-2--2---------2--2-2+2-2-2-| 
D|-0-0---0-0-0-0---0-0-|-0-0------0-0-0+0-0-0-|-2--2---------2--2-2+2-2-2-| 
A|---------------------|----------------------|-0--0---------0--0-0+0-0-0-| 
E|-3-3---3-3-3-3---3-3-|----------------------|---------------------------| 



E|---------------------|----------------------|---------------------------| 
B|---------------------|----------------------|---------------------------| 
G|---------------------|----------------------|---------------------------| 
D|---------------------|----------------------|---------------------------| 
A|---------------------|----------------------|---------------------------| 
E|---------------------|----------------------|---------------------------| 


 | E E  E  E E S S Q     E E  E E E S S S S E   E  E  E   E  E  S S E   E 

E|---5--3--5-8-7-#55---|---5--3-5-0-------0---|----5--3---5--8--7-#55---3-| 
B|---------------------|------------1-3+3---1-|---------------------------| 
G|---------------------|----------------------|---------------------------| 
D|---------------------|----------------------|---------------------------| 
A|---------------------|----------------------|---------------------------| 
E|---------------------|----------------------|---------------------------| 


 | E E  E  E E S S Q     E E  E E E S S S S E   E  E  E   E  E  S S E   E 

E|---5--3--5-8-7-#55---|---5--3-5-0-------0---|----5--3---5--8--7-#55---3-| 
B|---------------------|------------1-3+3---1-|---------------------------| 
G|---------------------|----------------------|---------------------------| 
D|---------------------|----------------------|---------------------------| 
A|---------------------|----------------------|---------------------------| 
E|---------------------|----------------------|---------------------------| 


   E  Q.      Q      Q       E E.  S E H           E Q.     Q     Q 

E|-10-9+------(b9)-----------|-8-8---8-8-7---------|-5-#5-----5-----------| 
B|-10-10+-----10-----------|-8-8---8-8-8---------|-8-7M-----7-----------| 
G|-(b9)-9+------(b9)-----------|-7-7---7-7-7---------|-7-7M-----7-----------| 
D|-------------------------|---------------------|----------------------| 
A|-------------------------|---------------------|----------------------| 
E|-------------------------|---------------------|----------------------| 


 | E  Q.      E  S S S S E   E E.  S E E E   E E   E Q.     E S S S S E 

E|-------------------------|---------------------|----------------------| 
B|-------------------------|---------------------|-3-3------3-3-3+3-3-3-| 
G|-2--2-------2--2-2+2-2-2-|-0-0---0-0-0-0---0-0-|-2-2------2-2-2+2-2-2-| 
D|-2--2-------2--2-2+2-2-2-|-0-0---0-0-0-0---0-0-|-0-0------0-0-0+0-0-0-| 
A|-0--0-------0--0-0+0-0-0-|---------------------|----------------------| 
E|-------------------------|-3-3---3-3-3-3---3-3-|----------------------| 

 

E|-------------------------|---------------------|----------------------| 
B|-------------------------|---------------------|----------------------| 
G|-------------------------|---------------------|----------------------| 
D|-------------------------|---------------------|----------------------| 
A|-------------------------|---------------------|----------------------| 
E|-------------------------|---------------------|----------------------| 


 | E  E   E E E  S S S S E   E E  E  E E S S Q     E E  E E E S S S S E 

E|----5---3-5-0--------0---|---5--3--5-8-7-#55---|---5--3-5-0-------0---| 
B|---------------1-3+3---1-|---------------------|------------1-3+3---1-| 
G|-------------------------|---------------------|----------------------| 
D|-------------------------|---------------------|----------------------| 
A|-------------------------|---------------------|----------------------| 
E|-------------------------|---------------------|----------------------| 


 | E  E   E E E  S S S S E   E E  E  E E S S Q     E E  E E E S S S S E 

E|----5---3-5-0--------0---|---5--3--5-8-7-#55---|---5--3-5-0-------0---| 
B|---------------1-3+3---1-|---------------------|------------1-3+3---1-| 
G|-------------------------|---------------------|----------------------| 
D|-------------------------|---------------------|----------------------| 
A|-------------------------|---------------------|----------------------| 
E|-------------------------|---------------------|----------------------| 

 
   E  E.   S E E.    S  SS E   E  Q.      Q      Q       E E.  S E H 

E|-5--5----5-5-7-----7---7-7-|-10-9+------(b9)-----------|-8-8---8-8-7---------| 
B|-6--6----6-6-8-----8---8-8-|-10-10+-----10-----------|-8-8---8-8-8---------| 
G|-5--5----5-5-7-----7---7-7-|-(b9)-9+------(b9)-----------|-7-7---7-7-7---------| 
D|---------------------------|-------------------------|---------------------| 
A|---------------------------|-------------------------|---------------------| 
E|---------------------------|-------------------------|---------------------| 


 | S E  S E  E S  E  S  E  E   E  Q.      E  S S S S E   E E.  S E E E   E E 

E|---------------------------|-------------------------|---------------------| 
B|---------------------------|-------------------------|---------------------| 
G|-------------0--0--0--0--0-|-2--2-------2--2-2+2-2-2-|-0-0---0-0-0-0---0-0-| 
D|-3-3--3-3--3-0--0--0--0--0-|-2--2-------2--2-2+2-2-2-|-0-0---0-0-0-0---0-0-| 
A|-3-3--3-3--3---------------|-0--0-------0--0-0+0-0-0-|---------------------| 
E|-1-1--1-1--1-3--3--3--3--3-|-------------------------|-3-3---3-3-3-3---3-3-| 

 

E|---------------------------|-------------------------|---------------------| 
B|---------------------------|-------------------------|---------------------| 
G|---------------------------|-------------------------|---------------------| 
D|---------------------------|-------------------------|---------------------| 
A|---------------------------|-------------------------|---------------------| 
E|---------------------------|-------------------------|---------------------| 


 | E  E   E  E E   S S  E  E   E  E   E E E  S S S S E   E E  E  E E S S Q 

E|----5---3--5-8---7-#5-5--3-|----5---3-5-0--------0---|---5--3--5-8-7-#55---| 
B|---------------------------|---------------1-3+3---1-|---------------------| 
G|---------------------------|-------------------------|---------------------| 
D|---------------------------|-------------------------|---------------------| 
A|---------------------------|-------------------------|---------------------| 
E|---------------------------|-------------------------|---------------------| 

 
 | E  E   E  E E   S S  E  E   E  E   E E E  S S S S E   E E  E  E E S S Q 

E|----5---3--5-8---7-#5-5--3-|----5---3-5-0--------0---|---5--3--5-8-7-#55---| 
B|---------------------------|---------------1-3+3---1-|---------------------| 
G|---------------------------|-------------------------|---------------------| 
D|---------------------------|-------------------------|---------------------| 
A|---------------------------|-------------------------|---------------------| 
E|---------------------------|-------------------------|---------------------| 

 
   E Q.     Q     Q       E  E.  S  E  H              E  Q.      Q      Q 

E|-5-#5-----5-----------|-10-10--10-10-(b9)-----------|-10-9+------(b9)-----------| 
B|-8-7M-----7-----------|-10-10--10-10-10-----------|-10-10+-----10-----------| 
G|-7-7M-----7-----------|-(b9)-(b9)--(b9)-(b9)-(b9)-----------|-(b9)-9+------(b9)-----------| 
D|----------------------|---------------------------|-------------------------| 
A|----------------------|---------------------------|-------------------------| 
E|----------------------|---------------------------|-------------------------| 

 
 | E Q.     E S S S S E   E  Q.        E  S S S S E   E  Q.      E  S S S S E 

E|----------------------|---------------------------|-------------------------| 
B|-3-3------3-3-3+3-3-3-|---------------------------|-------------------------| 
G|-2-2------2-2-2+2-2-2-|-2--2---------2--2-2+2-2-2-|-2--2-------2--2-2+2-2-2-| 
D|-0-0------0-0-0+0-0-0-|-2--2---------2--2-2+2-2-2-|-2--2-------2--2-2+2-2-2-| 
A|----------------------|-0--0---------0--0-0+0-0-0-|-0--0-------0--0-0+0-0-0-| 
E|----------------------|---------------------------|-------------------------| 

 

E|----------------------|---------------------------|-------------------------| 
B|----------------------|---------------------------|-------------------------| 
G|----------------------|---------------------------|-------------------------| 
D|----------------------|---------------------------|-------------------------| 
A|----------------------|---------------------------|-------------------------| 
E|----------------------|---------------------------|-------------------------| 

 
 | E E  E E E S S S S E   E  E  E   E  E  S S E   E   E  E   E E E  S S S S E 

E|---5--3-5-0-------0---|----5--3---5--8--7-#55---3-|----5---3-5-0--------0---| 
B|------------1-3+3---1-|---------------------------|---------------1-3+3---1-| 
G|----------------------|---------------------------|-------------------------| 
D|----------------------|---------------------------|-------------------------| 
A|----------------------|---------------------------|-------------------------| 
E|----------------------|---------------------------|-------------------------| 


 | E E  E E E S S S S E   E  E  E   E  E  S S E   E   E  E   E E E  S S S S E 

E|---5--3-5-0-------0---|----5--3---5--8--7-#55---3-|----5---3-5-0--------0---| 
B|------------1-3+3---1-|---------------------------|---------------1-3+3---1-| 
G|----------------------|---------------------------|-------------------------| 
D|----------------------|---------------------------|-------------------------| 
A|----------------------|---------------------------|-------------------------| 
E|----------------------|---------------------------|-------------------------| 

 

   E E.  S E H           E Q.     Q     Q       E  E.   S E E.    S  SS E 
E|-8-8---8-8-7---------|-5-#5-----5-----------|-5--5----5-5-7-----7---7-7-| 
B|-8-8---8-8-8---------|-8-7M-----7-----------|-6--6----6-6-8-----8---8-8-| 
G|-7-7---7-7-7---------|-7-7M-----7-----------|-5--5----5-5-7-----7---7-7-| 
D|---------------------|----------------------|---------------------------| 
A|---------------------|----------------------|---------------------------| 
E|---------------------|----------------------|---------------------------| 


 | E E.  S E E E   E E   E Q.     E S S S S E   S E  S E  E S  E  S  E  E 

E|---------------------|----------------------|---------------------------| 
B|---------------------|-3-3------3-3-3+3-3-3-|---------------------------| 
G|-0-0---0-0-0-0---0-0-|-2-2------2-2-2+2-2-2-|-------------0--0--0--0--0-| 
D|-0-0---0-0-0-0---0-0-|-0-0------0-0-0+0-0-0-|-3-3--3-3--3-0--0--0--0--0-| 
A|---------------------|----------------------|-3-3--3-3--3---------------| 
E|-3-3---3-3-3-3---3-3-|----------------------|-1-1--1-1--1-3--3--3--3--3-| 


 | E E  E  E E S S Q     E E  E E E S S S S E   E  E   E  E E   S S  E  E 

E|---5--3--5-8-7-#55---|---5--3-5-0-------0---|----5---3--5-8---7-#5-5--3-| 
B|---------------------|------------1-3+3---1-|---------------------------| 
G|---------------------|----------------------|---------------------------| 
D|---------------------|----------------------|---------------------------| 
A|---------------------|----------------------|---------------------------| 
E|---------------------|----------------------|---------------------------| 

 
 | E E  E  E E S S Q     E E  E E E S S S S E   E  E   E  E E   S S  E  E 

E|---5--3--5-8-7-#55---|---5--3-5-0-------0---|----5---3--5-8---7-#5-5--3-| 
B|---------------------|------------1-3+3---1-|---------------------------| 
G|---------------------|----------------------|---------------------------| 
D|---------------------|----------------------|---------------------------| 
A|---------------------|----------------------|---------------------------| 
E|---------------------|----------------------|---------------------------| 

 
   E  Q.      Q      Q       E E.  S E H           E Q.     Q     Q 

E|-10-9+------(b9)-----------|-8-8---8-8-7---------|-5-#5-----5-----------| 
B|-10-10+-----10-----------|-8-8---8-8-8---------|-8-7M-----7-----------| 
G|-(b9)-9+------(b9)-----------|-7-7---7-7-7---------|-7-7M-----7-----------| 
D|-------------------------|---------------------|----------------------| 
A|-------------------------|---------------------|----------------------| 
E|-------------------------|---------------------|----------------------| 

 
 | E  Q.      E  S S S S E   E E.  S E E E   E E   E Q.     E S S S S E 

E|-------------------------|---------------------|----------------------| 
B|-------------------------|---------------------|-3-3------3-3-3+3-3-3-| 
G|-2--2-------2--2-2+2-2-2-|-0-0---0-0-0-0---0-0-|-2-2------2-2-2+2-2-2-| 
D|-2--2-------2--2-2+2-2-2-|-0-0---0-0-0-0---0-0-|-0-0------0-0-0+0-0-0-| 
A|-0--0-------0--0-0+0-0-0-|---------------------|----------------------| 
E|-------------------------|-3-3---3-3-3-3---3-3-|----------------------| 


 | E  E   E E E  S S S S E   E E  E  E E S S Q     E E  E E E S S S S E 

E|----5---3-5-0--------0---|---5--3--5-8-7-#55---|---5--3-5-0-------0---| 
B|---------------1-3+3---1-|---------------------|------------1-3+3---1-| 
G|-------------------------|---------------------|----------------------| 
D|-------------------------|---------------------|----------------------| 
A|-------------------------|---------------------|----------------------| 
E|-------------------------|---------------------|----------------------| 


 | E  E   E E E  S S S S E   E E  E  E E S S Q     E E  E E E S S S S E 

E|----5---3-5-0--------0---|---5--3--5-8-7-#55---|---5--3-5-0-------0---| 
B|---------------1-3+3---1-|---------------------|------------1-3+3---1-| 
G|-------------------------|---------------------|----------------------| 
D|-------------------------|---------------------|----------------------| 
A|-------------------------|---------------------|----------------------| 
E|-------------------------|---------------------|----------------------| 


   E  E.  S  E  H              SSSSSSS S S  S SSS SSS  E  SSSSSSS SSSSSSS 

E|-10-10--10-10-(b9)-----------|-----------------------|-------------------| 
B|-10-10--10-10-10-----------|-----------------------|-------------------| 
G|-(b9)-(b9)--(b9)-(b9)-(b9)-----------|-----------------------|-0--0-0-0-0--0-0-0-| 
D|---------------------------|-3-3-3-3---3----3-3--3-|-0--0-0-0-0--0-0-0-| 
A|---------------------------|-3-3-3-3---3----3-3--3-|-------------------| 
E|---------------------------|-1-1-1-1---1----1-1--1-|-3--3-3-3-3--3-3-3-| 


 | E  Q.        E  S S S S E   SSSSSSS S S  S SSQ      E  SSSSSSS SSSQ 

E|---------------------------|-----------------------|-------------------| 
B|---------------------------|-----------------------|-------------------| 
G|-2--2---------2--2-2+2-2-2-|-----------------------|-0--0-0-0-0--0-0---| 
D|-2--2---------2--2-2+2-2-2-|-3-3-3-3-3-3--3-3-3----|-0--0-0-0-0--0-0---| 
A|-0--0---------0--0-0+0-0-0-|-3-3-3-3-3-3--3-3-3----|-------------------| 
E|---------------------------|-1-1-1-1-1-1--1-1-1----|-3--3-3-3-3--3-3---| 

 
 |                             Q   Q     Q      Q      H        Q    Q 

E|---------------------------|-----5-----8------17---|-15-------12---7---| 
B|---------------------------|-----6-----10-----17---|-15-------12---8---| 
G|---------------------------|-----------------------|-------------------| 
D|---------------------------|-----------------------|-------------------| 
A|---------------------------|-----------------------|-------------------| 
E|---------------------------|-----------------------|-------------------| 

 
 | E  E  E   E  E  S S E   E 

E|----5--3---5--8--7-#55---3-|-----------------------|-------------------| 
B|---------------------------|-----------------------|-------------------| 
G|---------------------------|-----------------------|-------------------| 
D|---------------------------|-----------------------|-------------------| 
A|---------------------------|-----------------------|-------------------| 
E|---------------------------|-----------------------|-------------------| 

 
 | E  E  E   E  E  S S E   E 

E|----5--3---5--8--7-#55---3-|-----------------------|-------------------| 
B|---------------------------|-----------------------|-------------------| 
G|---------------------------|-----------------------|-------------------| 
D|---------------------------|-----------------------|-------------------| 
A|---------------------------|-----------------------|-------------------| 
E|---------------------------|-----------------------|-------------------| 


   E. S E E E. S SS S S  E. S E E E. S Q     SSSSSSS S S  S SSS SSS 

E|---------------------|-------------------|-----------------------| 
B|---------------------|-------------------|-----------------------| 
G|----2+2-0------------|----2+2-0----------|-----------------------| 
D|----------4--2+2-----|----------4--2+2---|-3-3-3-3---3----3-3--3-| 
A|-0--------------0-3-4|-0-----------------|-3-3-3-3---3----3-3--3-| 
E|---------------------|-------------------|-1-1-1-1---1----1-1--1-| 


 | E. S E E E. S SS S S  E. S E E E. S Q     SSSSSSS S S  S SSQ 

E|---------------------|-------------------|-----------------------| 
B|---------------------|-------------------|-----------------------| 
G|----2+2-0------------|----2+2-0----------|-----------------------| 
D|----------4--2+2-----|----------4--2+2---|-3-3-3-3-3-3--3-3-3----| 
A|-0--------------0-3-4|-0-----------------|-3-3-3-3-3-3--3-3-3----| 
E|---------------------|-------------------|-1-1-1-1-1-1--1-1-1----| 


 | W                     W                   Q   Q     Q      Q 

E|-9+------------------|-(b9)----------------|-----5-----8------17---| 
B|-10+-----------------|-10----------------|-----6-----10-----17---| 
G|---------------------|-------------------|-----------------------| 
D|---------------------|-------------------|-----------------------| 
A|---------------------|-------------------|-----------------------| 
E|---------------------|-------------------|-----------------------| 

 | 


   E  SSSSSSS  S SSS SSS  E  E SSSSS S SSSSSS  E  E E E E E E E 
E|----------------------|--------------------|-0--0-0-0-0-0-0-0-| 
B|----------------------|-3--3-3-3-3---3-3-3-|-0--0-0-0-0-0-0-0-| 
G|-0--0-0-0-0----0-0--0-|-2--2-2-2-2---2-2-2-|------------------| 
D|-0--0-0-0-0----0-0--0-|-0--0-0-0-0---0-0-0-|-2--2-2-2-2-2-2-2-| 
A|----------------------|--------------------|------------------| 
E|-3--3-3-3-3----3-3--3-|--------------------|------------------| 


 | E  SSSSSSS  S SSQ      E  E SSSSS S SSSSSS  E  E E E E E E E 

E|----------------------|--------------------|-0--0-0-0-0-0-0-0-| 
B|----------------------|-3--3-3-3-3-3-3-3-3-|-0--0-0-0-0-0-0-0-| 
G|-0--0-0-0-0--0-0-0----|-2--2-2-2-2-2-2-2-2-|------------------| 
D|-0--0-0-0-0--0-0-0----|-0--0-0-0-0-0-0-0-0-|-2--2-2-2-2-2-2-2-| 
A|----------------------|--------------------|------------------| 
E|-3--3-3-3-3--3-3-3----|--------------------|------------------| 


 | H        Q      Q      W                    W 

E|-15-------22-----1(b9)--|-17-----------------|-1(b9)--------------| 
B|-15-------24-----20---|-1(b9)----------------|-21---------------| 
G|----------------------|--------------------|------------------| 
D|----------------------|--------------------|------------------| 
A|----------------------|--------------------|------------------| 
E|----------------------|--------------------|------------------| 

 
   E  Q.      Q      Q       E E.  S E H           E Q.     Q     Q 

E|-10-9+------(b9)-----------|-8-8---8-8-7---------|-5-#5-----5-----------| 
B|-10-10+-----10-----------|-8-8---8-8-8---------|-8-7M-----7-----------| 
G|-(b9)-9+------(b9)-----------|-7-7---7-7-7---------|-7-7M-----7-----------| 
D|-------------------------|---------------------|----------------------| 
A|-------------------------|---------------------|----------------------| 
E|-------------------------|---------------------|----------------------| 


 | E  Q.      E  S S S S E   E E.  S E E E   E E   E Q.     E S S S S E 

E|-------------------------|---------------------|----------------------| 
B|-------------------------|---------------------|-3-3------3-3-3+3-3-3-| 
G|-2--2-------2--2-2+2-2-2-|-0-0---0-0-0-0---0-0-|-2-2------2-2-2+2-2-2-| 
D|-2--2-------2--2-2+2-2-2-|-0-0---0-0-0-0---0-0-|-0-0------0-0-0+0-0-0-| 
A|-0--0-------0--0-0+0-0-0-|---------------------|----------------------| 
E|-------------------------|-3-3---3-3-3-3---3-3-|----------------------| 

 
 | E  E   E E E  S S S S E   E E  E  E E S S Q     E E  E E E S S S S E 

E|----5---3-5-0--------0---|---5--3--5-8-7-#55---|---5--3-5-0-------0---| 
B|---------------1-3+3---1-|---------------------|------------1-3+3---1-| 
G|-------------------------|---------------------|----------------------| 
D|-------------------------|---------------------|----------------------| 
A|-------------------------|---------------------|----------------------| 
E|-------------------------|---------------------|----------------------| 


 | E  E   E E E  S S S S E   E E  E  E E S S Q     E E  E E E S S S S E 

E|----5---3-5-0--------0---|---5--3--5-8-7-#55---|---5--3-5-0-------0---| 
B|---------------1-3+3---1-|---------------------|------------1-3+3---1-| 
G|-------------------------|---------------------|----------------------| 
D|-------------------------|---------------------|----------------------| 
A|-------------------------|---------------------|----------------------| 
E|-------------------------|---------------------|----------------------| 


   E  E.   S E E.    S  SS E   E  Q.      Q      Q       E E.  S E H 

E|-5--5----5-5-7-----7---7-7-|-10-9+------(b9)-----------|-8-8---8-8-7---------| 
B|-6--6----6-6-8-----8---8-8-|-10-10+-----10-----------|-8-8---8-8-8---------| 
G|-5--5----5-5-7-----7---7-7-|-(b9)-9+------(b9)-----------|-7-7---7-7-7---------| 
D|---------------------------|-------------------------|---------------------| 
A|---------------------------|-------------------------|---------------------| 
E|---------------------------|-------------------------|---------------------| 


 | S E  S E  E S  E  S  E  E   E  Q.      E  S S S S E   E E.  S E E E   E E 

E|---------------------------|-------------------------|---------------------| 
B|---------------------------|-------------------------|---------------------| 
G|-------------0--0--0--0--0-|-2--2-------2--2-2+2-2-2-|-0-0---0-0-0-0---0-0-| 
D|-3-3--3-3--3-0--0--0--0--0-|-2--2-------2--2-2+2-2-2-|-0-0---0-0-0-0---0-0-| 
A|-3-3--3-3--3---------------|-0--0-------0--0-0+0-0-0-|---------------------| 
E|-1-1--1-1--1-3--3--3--3--3-|-------------------------|-3-3---3-3-3-3---3-3-| 


 | E  E   E  E E   S S  E  E   E  E   E E E  S S S S E   E E  E  E E S S Q 

E|----5---3--5-8---7-#5-5--3-|----5---3-5-0--------0---|---5--3--5-8-7-#55---| 
B|---------------------------|---------------1-3+3---1-|---------------------| 
G|---------------------------|-------------------------|---------------------| 
D|---------------------------|-------------------------|---------------------| 
A|---------------------------|-------------------------|---------------------| 
E|---------------------------|-------------------------|---------------------| 


 | E  E   E  E E   S S  E  E   E  E   E E E  S S S S E   E E  E  E E S S Q 

E|----5---3--5-8---7-#5-5--3-|----5---3-5-0--------0---|---5--3--5-8-7-#55---| 
B|---------------------------|---------------1-3+3---1-|---------------------| 
G|---------------------------|-------------------------|---------------------| 
D|---------------------------|-------------------------|---------------------| 
A|---------------------------|-------------------------|---------------------| 
E|---------------------------|-------------------------|---------------------| 

 
   E Q.     Q     Q       E  E.  S  E  H              E  Q.      Q      Q 

E|-5-#5-----5-----------|-10-10--10-10-(b9)-----------|-10-9+------(b9)-----------| 
B|-8-7M-----7-----------|-10-10--10-10-10-----------|-10-10+-----10-----------| 
G|-7-7M-----7-----------|-(b9)-(b9)--(b9)-(b9)-(b9)-----------|-(b9)-9+------(b9)-----------| 
D|----------------------|---------------------------|-------------------------| 
A|----------------------|---------------------------|-------------------------| 
E|----------------------|---------------------------|-------------------------| 


 | E Q.     E S S S S E   E  Q.        E  S S S S E   E  Q.      E  S S S S E 

E|----------------------|---------------------------|-------------------------| 
B|-3-3------3-3-3+3-3-3-|---------------------------|-------------------------| 
G|-2-2------2-2-2+2-2-2-|-2--2---------2--2-2+2-2-2-|-2--2-------2--2-2+2-2-2-| 
D|-0-0------0-0-0+0-0-0-|-2--2---------2--2-2+2-2-2-|-2--2-------2--2-2+2-2-2-| 
A|----------------------|-0--0---------0--0-0+0-0-0-|-0--0-------0--0-0+0-0-0-| 
E|----------------------|---------------------------|-------------------------| 


 | E E  E E E S S S S E   E  E  E   E  E  S S E   E   E  E   E E E  S S S S E 

E|---5--3-5-0-------0---|----5--3---5--8--7-#55---3-|----5---3-5-0--------0---| 
B|------------1-3+3---1-|---------------------------|---------------1-3+3---1-| 
G|----------------------|---------------------------|-------------------------| 
D|----------------------|---------------------------|-------------------------| 
A|----------------------|---------------------------|-------------------------| 
E|----------------------|---------------------------|-------------------------| 


 | E E  E E E S S S S E   E  E  E   E  E  S S E   E   E  E   E E E  S S S S E 

E|---5--3-5-0-------0---|----5--3---5--8--7-#55---3-|----5---3-5-0--------0---| 
B|------------1-3+3---1-|---------------------------|---------------1-3+3---1-| 
G|----------------------|---------------------------|-------------------------| 
D|----------------------|---------------------------|-------------------------| 
A|----------------------|---------------------------|-------------------------| 
E|----------------------|---------------------------|-------------------------| 

 

   E E.  S E H           E Q.     Q     Q       E  E.   S E E.    S  SS E 
E|-8-8---8-8-7---------|-5-#5-----5-----------|-5--5----5-5-7-----7---7-7-| 
B|-8-8---8-8-8---------|-8-7M-----7-----------|-6--6----6-6-8-----8---8-8-| 
G|-7-7---7-7-7---------|-7-7M-----7-----------|-5--5----5-5-7-----7---7-7-| 
D|---------------------|----------------------|---------------------------| 
A|---------------------|----------------------|---------------------------| 
E|---------------------|----------------------|---------------------------| 


 | E E.  S E E E   E E   E Q.     E S S S S E   S E  S E  E S  E  S  E  E 

E|---------------------|----------------------|---------------------------| 
B|---------------------|-3-3------3-3-3+3-3-3-|---------------------------| 
G|-0-0---0-0-0-0---0-0-|-2-2------2-2-2+2-2-2-|-------------0--0--0--0--0-| 
D|-0-0---0-0-0-0---0-0-|-0-0------0-0-0+0-0-0-|-3-3--3-3--3-0--0--0--0--0-| 
A|---------------------|----------------------|-3-3--3-3--3---------------| 
E|-3-3---3-3-3-3---3-3-|----------------------|-1-1--1-1--1-3--3--3--3--3-| 

 

E|---------------------|----------------------|---------------------------| 
B|---------------------|----------------------|---------------------------| 
G|---------------------|----------------------|---------------------------| 
D|---------------------|----------------------|---------------------------| 
A|---------------------|----------------------|---------------------------| 
E|---------------------|----------------------|---------------------------| 

 
 | E E  E  E E S S Q     E E  E E E S S S S E   E  E   E  E E   S S  E  E 

E|---5--3--5-8-7-#55---|---5--3-5-0-------0---|----5---3--5-8---7-#5-5--3-| 
B|---------------------|------------1-3+3---1-|---------------------------| 
G|---------------------|----------------------|---------------------------| 
D|---------------------|----------------------|---------------------------| 
A|---------------------|----------------------|---------------------------| 
E|---------------------|----------------------|---------------------------| 


 | E E  E  E E S S Q     E E  E E E S S S S E   E  E   E  E E   S S  E  E 

E|---5--3--5-8-7-#55---|---5--3-5-0-------0---|----5---3--5-8---7-#5-5--3-| 
B|---------------------|------------1-3+3---1-|---------------------------| 
G|---------------------|----------------------|---------------------------| 
D|---------------------|----------------------|---------------------------| 
A|---------------------|----------------------|---------------------------| 
E|---------------------|----------------------|---------------------------| 

 
   E  Q.      Q      Q       E E.  S E H           E Q.     Q     Q 

E|-10-9+------(b9)-----------|-8-8---8-8-7---------|-5-#5-----5-----------| 
B|-10-10+-----10-----------|-8-8---8-8-8---------|-8-7M-----7-----------| 
G|-(b9)-9+------(b9)-----------|-7-7---7-7-7---------|-7-7M-----7-----------| 
D|-------------------------|---------------------|----------------------| 
A|-------------------------|---------------------|----------------------| 
E|-------------------------|---------------------|----------------------| 

 
 | E  Q.      E  S S S S E   E E.  S E E E   E E   E Q.     E S S S S E 

E|-------------------------|---------------------|----------------------| 
B|-------------------------|---------------------|-3-3------3-3-3+3-3-3-| 
G|-2--2-------2--2-2+2-2-2-|-0-0---0-0-0-0---0-0-|-2-2------2-2-2+2-2-2-| 
D|-2--2-------2--2-2+2-2-2-|-0-0---0-0-0-0---0-0-|-0-0------0-0-0+0-0-0-| 
A|-0--0-------0--0-0+0-0-0-|---------------------|----------------------| 
E|-------------------------|-3-3---3-3-3-3---3-3-|----------------------| 

 

E|-------------------------|---------------------|----------------------| 
B|-------------------------|---------------------|----------------------| 
G|-------------------------|---------------------|----------------------| 
D|-------------------------|---------------------|----------------------| 
A|-------------------------|---------------------|----------------------| 
E|-------------------------|---------------------|----------------------| 

 
 | E  E   E E E  S S S S E   E E  E  E E S S Q     E E  E E E S S S S E 

E|----5---3-5-0--------0---|---5--3--5-8-7-#55---|---5--3-5-0-------0---| 
B|---------------1-3+3---1-|---------------------|------------1-3+3---1-| 
G|-------------------------|---------------------|----------------------| 
D|-------------------------|---------------------|----------------------| 
A|-------------------------|---------------------|----------------------| 
E|-------------------------|---------------------|----------------------| 


 | E  E   E E E  S S S S E   E E  E  E E S S Q     E E  E E E S S S S E 

E|----5---3-5-0--------0---|---5--3--5-8-7-#55---|---5--3-5-0-------0---| 
B|---------------1-3+3---1-|---------------------|------------1-3+3---1-| 
G|-------------------------|---------------------|----------------------| 
D|-------------------------|---------------------|----------------------| 
A|-------------------------|---------------------|----------------------| 
E|-------------------------|---------------------|----------------------| 


   E  E.  S  E  H              S E SSS E E E Q 

E|-10-10--10-10-(b9)-----------|-------------------|---------------------------| 
B|-10-10--10-10-10-----------|-------------------|---------------------------| 
G|-(b9)-(b9)--(b9)-(b9)-(b9)-----------|-0-2-2-2-0-2-------|---------------------------| 
D|---------------------------|-0-2-2-2-0-2-------|---------------------------| 
A|---------------------------|---0-0-0---0-------|---------------------------| 
E|---------------------------|-3-------3---------|---------------------------| 


 | E  Q.        E  S S S S E   S E SSS E Q   Q 

E|---------------------------|-------------------|---------------------------| 
B|---------------------------|-------------------|---------------------------| 
G|-2--2---------2--2-2+2-2-2-|-0-2-2-2-0-2-------|---------------------------| 
D|-2--2---------2--2-2+2-2-2-|-0-2-2-2-0-2-------|---------------------------| 
A|-0--0---------0--0-0+0-0-0-|---0-0-0---0-------|---------------------------| 
E|---------------------------|-3-------3---------|---------------------------| 

 

E|---------------------------|-------------------|---------------------------| 
B|---------------------------|-------------------|---------------------------| 
G|---------------------------|-------------------|---------------------------| 
D|---------------------------|-------------------|---------------------------| 
A|---------------------------|-------------------|---------------------------| 
E|---------------------------|-------------------|---------------------------| 


 | E  E  E   E  E  S S E   E   H         Q   E E   S E S S E S E S S S S S S 

E|----5--3---5--8--7-#55---3-|-------------------|-3-3-3+3-3-3-3-0-3-0-3-5-12| 
B|---------------------------|-----------------3-|---------------------------| 
G|---------------------------|-------------------|---------------------------| 
D|---------------------------|-------------------|---------------------------| 
A|---------------------------|-------------------|---------------------------| 
E|---------------------------|-------------------|---------------------------| 

 
 | E  E  E   E  E  S S E   E   H         Q   E E   S E S S E S E S S S S S S 

E|----5--3---5--8--7-#55---3-|-------------------|-3-3-3+3-3-3-3-0-3-0-3-5-12| 
B|---------------------------|-----------------3-|---------------------------| 
G|---------------------------|-------------------|---------------------------| 
D|---------------------------|-------------------|---------------------------| 
A|---------------------------|-------------------|---------------------------| 
E|---------------------------|-------------------|---------------------------| 

 
   S E SSS E E E  Q                           S E SSS E E E Q 

E|--------------------|---------------------|--------------------| 
B|--------------------|---------------------|--------------------| 
G|-0-2-2-2-0-2--------|---------------------|-0-2-2-2-0-2--------| 
D|-0-2-2-2-0-2--------|---------------------|-0-2-2-2-0-2--------| 
A|---0-0-0---0--------|---------------------|---0-0-0---0--------| 
E|-3-------3----------|---------------------|-3-------3----------| 


 | S E SSS E Q    Q                           S E SSS E Q   Q 

E|--------------------|---------------------|--------------------| 
B|--------------------|---------------------|--------------------| 
G|-0-2-2-2-0-2--------|---------------------|-0-2-2-2-0-2--------| 
D|-0-2-2-2-0-2--------|---------------------|-0-2-2-2-0-2--------| 
A|---0-0-0---0--------|---------------------|---0-0-0---0--------| 
E|-3-------3----------|---------------------|-3-------3----------| 



E|--------------------|---------------------|--------------------| 
B|--------------------|---------------------|--------------------| 
G|--------------------|---------------------|--------------------| 
D|--------------------|---------------------|--------------------| 
A|--------------------|---------------------|--------------------| 
E|--------------------|---------------------|--------------------| 

 
 | H         E S SE E   E E E SS E S S S SE   H         Q   S E. 

E|--------------------|--------0+0----------|--------------------| 
B|----------------1-1-|-1-1-1-1----3-1-3-1--|-----------------1--| 
G|-------------0-2----|-------------------2-|---------------0-0--| 
D|--------------------|---------------------|---------------7----| 
A|--------------------|---------------------|---------------7----| 
E|--------------------|---------------------|--------------------| 


 | H         E S SE E   E E E SS E S S S SE   H         Q   S E. 

E|--------------------|--------0+0----------|--------------------| 
B|----------------1-1-|-1-1-1-1----3-1-3-1--|-----------------1--| 
G|-------------0-2----|-------------------2-|---------------0-0--| 
D|--------------------|---------------------|---------------7----| 
A|--------------------|---------------------|---------------7----| 
E|--------------------|---------------------|--------------------| 


                          S E    S S S E   Q     Q 

E|----------------------|-------------------------------| 
B|----------------------|-------------------------------| 
G|----------------------|-0-2----2---2-0---2------------| 
D|----------------------|-0-2----2---2-0---2------------| 
A|----------------------|---0----0---0-----0------------| 
E|----------------------|-3------------3----------------| 


 |                        S S  S S S S E   E  E  Q 

E|----------------------|-------------------------------| 
B|----------------------|-------------------------------| 
G|----------------------|-0-2----2---2-0---2------------| 
D|----------------------|-0-2----2---2-0---2------------| 
A|----------------------|---0----0---0-----0------------| 
E|----------------------|-3------------3----------------| 

 

E|----------------------|-------------------------------| 
B|----------------------|-------------------------------| 
G|----------------------|-------------------------------| 
D|----------------------|-------------------------------| 
A|----------------------|-------------------------------| 
E|----------------------|-------------------------------| 


                     |3-| |3-||3-||3| |3||3||3| |3| 
 | S E S S SE S SE S SE   SS S SS SSS SSSS SSSSSSSSS SSS 

E|----------------------|-0-------0----0-----0---0-----0| 
B|---------------1------|--1----1--1--1-1---1-1-1-1---1-| 
G|-0-0-0+0-0--0-2--2-0--|----2-0----2----2-0---2---2-0--| 
D|----------2---------2-|-------------------------------| 
A|----------------------|-------------------------------| 
E|----------------------|-------------------------------| 


 |                        |3-| |3-||3-||3| |3||3||3| |3| 
 | S E S S SE S SE S SE   SS S SS SSS SSSS SSSSSSSSS SSS 

E|----------------------|-0-------0----0-----0---0-----0| 
B|---------------1------|--1----1--1--1-1---1-1-1-1---1-| 
G|-0-0-0+0-0--0-2--2-0--|----2-0----2----2-0---2---2-0--| 
D|----------2---------2-|-------------------------------| 
A|----------------------|-------------------------------| 
E|----------------------|-------------------------------| 

 
                                H           E S S E S S  H       SS S S SE. 

E|----------------------------|------------------------|--------------------| 
B|----------------------------|------------------------|--------------------| 
G|----------------------------|---------------------0-0|--------------------| 
D|----------------------------|---------------2-2------|---------0----------| 
A|----------------------------|---------------0-0---3-3|----------3-2-3-2---| 
E|----------------------------|------------------------|-----------------3--| 

 
 | H             Q      Q       S E S S S E E.  S E.  S  H       SS S S SE. 

E|----------------------------|------------------------|--------------------| 
B|----------------------------|-------------------1---1|-3------------------| 
G|----------------------1-----|-0-2-2---2-0-2---2-0---0|-2------------------| 
D|----------------------1-----|-0-2-2---2-0-2---2------|-0-------0----------| 
A|----------------------------|---0-0---0---0---0-3---3|----------3-2-3-2---| 
E|----------------------------|-3---------3------------|-----------------3--| 


 |                              S E S S S E Q     Q      H       SS S S SE. 

E|----------------------------|------------------------|--------------------| 
B|----------------------------|-------------------1----|-3------------------| 
G|----------------------------|-0-2-2+2-2-0-2-----0----|-2------------------| 
D|----------------------------|-0-2-2+2-2-0-2----------|-0-------0----------| 
A|----------------------------|---0-0+0-0---0-----3----|----------3-2-3-2---| 
E|----------------------------|-3---------3------------|-----------------3--| 

 
 | |3||3-| |3||3||3||3-||3||3| 
 | SSSSS S SSSSSSSSSS SSSSSSSS 

E|---0------0--0--0-----0--0--|------------------------|--------------------| 
B|--1-1------1---1-1---1--1-1-|------------------------|--------------------| 
G|-2---2-0-2--2-0---0-2--2---2|------------------------|--------------------| 
D|----------------------------|------------------------|--------------------| 
A|----------------------------|------------------------|--------------------| 
E|----------------------------|------------------------|--------------------| 


 | |3||3-| |3||3||3||3-||3||3| 
 | SSSSS S SSSSSSSSSS SSSSSSSS 

E|---0------0--0--0-----0--0--|------------------------|--------------------| 
B|--1-1------1---1-1---1--1-1-|------------------------|--------------------| 
G|-2---2-0-2--2-0---0-2--2---2|------------------------|--------------------| 
D|----------------------------|------------------------|--------------------| 
A|----------------------------|------------------------|--------------------| 
E|----------------------------|------------------------|--------------------| 


   H           E S S E S S  Q   S S SS H           H           E S S E S S 

E|------------------------|----------------------|------------------------| 
B|------------------------|----------------------|------------------------| 
G|---------------------0-0|----------------------|---------------------0-0| 
D|---------------2-2------|-------0-2------------|---------------2-2------| 
A|---------------0-0---3-3|----------------------|---------------0-0---3-3| 
E|------------------------|----------------------|------------------------| 


 | S SSS S S E E.  S SSS S  Q   S S SS E E   SSE   S SSS S S E E.  S SSS S 

E|------------------------|----------------------|------------------------| 
B|-------------------1---1|-3+--3--------1---0---|-------------------1---1| 
G|-0-2-2---2-0-2---2-0---0|-2+--2----0-2------0--|-0-2-2---2-0-2---2-0---0| 
D|-0-2-2---2-0-2---2------|-0+--0-0-2------------|-0-2-2---2-0-2---2------| 
A|---0-0---0---0---0-3---3|----------------------|---0-0---0---0---0-3---3| 
E|-3---------3------------|----------------------|-3---------3------------| 

 
 | S E S S S E Q     Q      Q   S S SS SSS S SSE   S E S S S E Q     Q 

E|------------------------|----------------------|------------------------| 
B|-------------------1----|-3---3--------1-1-0---|-------------------1----| 
G|-0-2-2+2-2-0-2-----0----|-2---2----0-2------0--|-0-2-2+2-2-0-2-----0----| 
D|-0-2-2+2-2-0-2----------|-0---0-0-2------------|-0-2-2+2-2-0-2----------| 
A|---0-0+0-0---0-----3----|----------------------|---0-0+0-0---0-----3----| 
E|-3---------3------------|----------------------|-3---------3------------| 

 

E|------------------------|----------------------|------------------------| 
B|------------------------|----------------------|------------------------| 
G|------------------------|----------------------|------------------------| 
D|------------------------|----------------------|------------------------| 
A|------------------------|----------------------|------------------------| 
E|------------------------|----------------------|------------------------| 



E|------------------------|----------------------|------------------------| 
B|------------------------|----------------------|------------------------| 
G|------------------------|----------------------|------------------------| 
D|------------------------|----------------------|------------------------| 
A|------------------------|----------------------|------------------------| 
E|------------------------|----------------------|------------------------| 


   H       SS S S SE.   H           E S S E S S 

E|--------------------|------------------------|------------------| 
B|--------------------|------------------------|------------------| 
G|--------------------|---------------------0-0|------------------| 
D|---------0----------|---------------2-2------|------------------| 
A|----------3-2-3-2---|---------------0-0---3-3|------------------| 
E|-----------------3--|------------------------|------------------| 


 | H       SS S S SE.   S E S S S E E.  S E.  S  Q   S SSSSSSSSE. 

E|--------------------|------------------------|---------0-1-2-3--| 
B|-3------------------|-------------------1---1|-3---3-4-0-1-2-3--| 
G|-2------------------|-0-2-2---2-0-2---2-0---0|-2---2-3-------0--| 
D|-0-------0----------|-0-2-2---2-0-2---2------|-0---0-1-2-3-4----| 
A|----------3-2-3-2---|---0-0---0---0---0-3---3|------------------| 
E|-----------------3--|-3---------3------------|------------------| 


 | H       SS S S SE.   S E S S S E Q     Q      Q   S SSSSSSSSE. 

E|--------------------|------------------------|---------0-1-2-3--| 
B|-3------------------|-------------------1----|-3---3-4-0-1-2-3--| 
G|-2------------------|-0-2-2+2-2-0-2-----0----|-2---2-3-------0--| 
D|-0-------0----------|-0-2-2+2-2-0-2----------|-0---0-1-2-3-4----| 
A|----------3-2-3-2---|---0-0+0-0---0-----3----|------------------| 
E|-----------------3--|-3---------3------------|------------------| 



E|--------------------|------------------------|------------------| 
B|--------------------|------------------------|------------------| 
G|--------------------|------------------------|------------------| 
D|--------------------|------------------------|------------------| 
A|--------------------|------------------------|------------------| 
E|--------------------|------------------------|------------------| 

 

E|--------------------|------------------------|------------------| 
B|--------------------|------------------------|------------------| 
G|--------------------|------------------------|------------------| 
D|--------------------|------------------------|------------------| 
A|--------------------|------------------------|------------------| 
E|--------------------|------------------------|------------------| 

 
                     E   Q.    Q      Q       E  E.   S E  H 

E|-----------------|-10--9+----(b9)-----------|-8--8----8-8--7--------| 
B|-----------------|-10--10+---10-----------|-8--8----8-8--8--------| 
G|-----------------|-(b9)--9+----(b9)-----------|-7--7----7-7--7--------| 
D|-----------------|------------------------|-----------------------| 
A|-----------------|------------------------|-----------------------| 
E|-----------------|------------------------|-----------------------| 


 |                   E   Q.    E  S S S S E   E  E.   S E  E  E E E 

E|-----------------|------------------------|-----------------------| 
B|-----------------|------------------------|-----------------------| 
G|-----------------|-2---2-----2--2-2+2-2-2-|-0--0----0-0--0--0-0-0-| 
D|-----------------|-2---2-----2--2-2+2-2-2-|-0--0----0-0--0--0-0-0-| 
A|-----------------|-0---0-----0--0-0+0-0-0-|-----------------------| 
E|-----------------|------------------------|-3--3----3-3--3--3-3-3-| 


 |                   W                        S SE  E   E  Q.     E 

E|-----------------|-17M--------------------|-17-12-17--1(b9)21-----17| 
B|-----------------|------------------------|-----------------------| 
G|-----------------|------------------------|-----------------------| 
D|-----------------|------------------------|-----------------------| 
A|-----------------|------------------------|-----------------------| 
E|-----------------|------------------------|-----------------------| 


 | 

E|-----------------|------------------------|-----------------------| 
B|-----------------|------------------------|-----------------------| 
G|-----------------|------------------------|-----------------------| 
D|-----------------|------------------------|-----------------------| 
A|-----------------|------------------------|-----------------------| 
E|-----------------|------------------------|-----------------------| 

 

E|-----------------|------------------------|-----------------------| 
B|-----------------|------------------------|-----------------------| 
G|-----------------|------------------------|-----------------------| 
D|-----------------|------------------------|-----------------------| 
A|-----------------|------------------------|-----------------------| 
E|-----------------|------------------------|-----------------------| 



   E  Q.         Q      Q       E   E.    S E  E.   S SS E 
E|-5--#5---------5------------|-5---5-----5-5--7----7--7-7-| 
B|-8--7M---------7------------|-6---6-----6-6--8----8--8-8-| 
G|-7--7M---------7------------|-5---5-----5-5--7----7--7-7-| 
D|----------------------------|----------------------------| 
A|----------------------------|----------------------------| 
E|----------------------------|----------------------------| 


 | E  Q.         E  S S S S E   S E    S E  E  S  E S E  E 
E|----------------------------|----------------------------| 
B|-3--3----------3--3-3+3-3-3-|----------------------------| 
G|-2--2----------2--2-2+2-2-2-|----------------0--0-0-0--0-| 
D|-0--0----------0--0-0+0-0-0-|-3-3----3-3--3--0--0-0-0--0-| 
A|----------------------------|-3-3----3-3--3--------------| 
E|----------------------------|-1-1----1-1--1--3--3-3-3--3-| 
                             |--3--|  |-3-| 
 | Q    S  S  E  Q      Q       E  E  E  E E E Q.        E 
E|-22---20-1(b9)17M17-----3-----|-5--3--0--------------------| 
B|----------------------------|----------4-3-1-3---------0-| 
G|----------------------------|----------------------------| 
D|----------------------------|----------------------------| 
A|----------------------------|----------------------------| 
E|----------------------------|----------------------------| 
 
 | 

E|----------------------------|----------------------------| 
B|----------------------------|----------------------------| 
G|----------------------------|----------------------------| 
D|----------------------------|----------------------------| 
A|----------------------------|----------------------------| 
E|----------------------------|----------------------------| 



E|----------------------------|----------------------------| 
B|----------------------------|----------------------------| 
G|----------------------------|----------------------------| 
D|----------------------------|----------------------------| 
A|----------------------------|----------------------------| 
E|----------------------------|----------------------------| 

 
   E   Q.            Q         Q        E     E.       S E    H 

E|-10--9+------------(b9)---------------|-8-----8--------8-8----7-------------| 
B|-10--10+-----------10---------------|-8-----8--------8-8----8-------------| 
G|-(b9)--9+------------(b9)---------------|-7-----7--------7-7----7-------------| 
D|------------------------------------|-------------------------------------| 
A|------------------------------------|-------------------------------------| 
E|------------------------------------|-------------------------------------| 


 | E   Q.            E    S S  S S E    E     E.       S E    E     E   E E 

E|------------------------------------|-------------------------------------| 
B|------------------------------------|-------------------------------------| 
G|-2---2-------------2----2-2+-2-2-2--|-0-----0--------0-0----0-----0---0-0-| 
D|-2---2-------------2----2-2+-2-2-2--|-0-----0--------0-0----0-----0---0-0-| 
A|-0---0-------------0----0-0+-0-0-0--|-------------------------------------| 
E|------------------------------------|-3-----3--------3-3----3-----3---3-3-| 


 |     |-3-|                                                  |-3-| |3-| 
 | S S S  SS S S S S S  S S S  S S S S  S  S  S  S  S  S S  S S S S S SSQ 

E|---0-(b9)--0-(b9)7-(b9)7-5--(b9)7-5--3-7-5-3|-15-12-14-10-12-8-10-7-8-7-5-2-0-----| 
B|-4------4---------------------------|--------------------------------3----| 
G|------------------------------------|-------------------------------------| 
D|------------------
Texto Colunas
Alterar tom ½ tom ½ tom
afinação acordes na letra esconder tabs mais »
40.522 exibições

Comentários 0

Consegui tocarAinda não conseguiram tocar essa música. Seja o primeiro!
    Não consegui tocar
    1. Domingo de Manhã - Marcos e Belutti Manteve-se 97.773 exibições
    2. Logo Eu - Jorge e Mateus Manteve-se 48.368 exibições
    3. Pra Você - Onze:20 Manteve-se 37.461 exibições
    4. Maus Bocados - Cristiano Araújo Manteve-se 36.706 exibições
    5. Não Vai Voltar - Onze:20 Manteve-se 36.448 exibições
    6. Recaídas - Henrique e Juliano Manteve-se 36.224 exibições
    7. Aonde Quer Que Eu Vá - Os Paralamas do Sucesso Manteve-se 35.210 exibições
    8. É Preciso Saber Viver - Titãs Manteve-se 32.774 exibições
    9. Só Os Loucos Sabem - Charlie Brown Jr. Manteve-se 32.470 exibições
    10. Pais e Filhos - Legião Urbana Manteve-se 30.493 exibições
    1. Jorge e Mateus- Manteve-se 280.647 exibições
    2. Legião Urbana- Manteve-se 216.683 exibições
    3. Charlie Brown Jr.- Manteve-se 156.154 exibições
    4. Fernandinho- Manteve-se 124.823 exibições
    5. Marcos e Belutti- Manteve-se 120.573 exibições
    6. Henrique e Juliano- Manteve-se 116.667 exibições
    7. Bruno e Marrone- Manteve-se 106.899 exibições
    8. Victor e Leo- Manteve-se 100.187 exibições
    9. Onze:20- Manteve-se 96.303 exibições
    10. Thalles Roberto- Manteve-se 93.316 exibições
    Exibir acordes »

    Cifras e tabs

    Fórum Cifra Club

    Aprenda

    Cifra Club News

    Mais Serviços Cifra Club ID

    Studio Sol

    ©1996 - 2014 Cifra Club · o primeiro, maior e mais acessado do Brasil · 336 mil músicas · 6.2 milhões pessoas cadastradas

    publicidade
    fechar