Pica Pau

Temas Diversos

Sem foto do Temas Diversos
Tom: E
		
                                      H P H P H P H P
e|-----9 12-9-----------9-12-9-----9-8-9-8-9-8-9-8-9-8\0--------------------

B|---10---------------10-----------------------------------------------------
G|--9----------------9-------------------------------------------------------


Axo legalzao fazer essa parte

é um trecho tirado da Música Cabeça de Bagre dos Mamonas

H ---> Hammer on
P ---> Pull Off
\ ---> Slide back


-------------------------------------||------------------------------------------------


Outra versao... boa pra treinar sweep picking tocada pelo Jason Becker

Gtr I (E A D G B E) - 'Jason'


  Q=180
  C
 7/8
  Gtr I

  E  S  S  S  S  S  S  E  E E   E  S  S  S  S  S  S  E  E E
|------------------12-15-12---|------------------12-15-12---|
|---------------13------------|---------------13------------|
|------------12---------------|------------12---------------|
|---------14------------------|---------14------------------|
|------15---------------------|------15---------------------|
|-8s12------------------------|-8s12------------------------|



  N.C.(C)
 10/8
                          ~~~~~~~~~~
   E  S  E  S  E  S E  E  E.    +Q

|-15-12-13-15-13-12------------------|
|---------------------15-12b13-(12)--|
|------------------------------------|
|------------------------------------|
|------------------------------------|
|------------------------------------|



 7/8

  E  S  S  S  S  S  S  E  E E   E  S  S  S  S  S  S  E  E E
|------------------12-15-12---|------------------12-15-12---|
|---------------13------------|---------------13------------|
|------------12---------------|------------12---------------|
|---------14------------------|---------14------------------|
|------15---------------------|------15---------------------|
|-8s12------------------------|-8s12------------------------|



  N.C.(C)
 10/8
                          ~~~~~~~~
   E  S  E  S  E  S E  E  E.  +Q

|-15-12-13-15-13-12------15--(15)--|
|---------------------13-----------|
|----------------------------------|
|----------------------------------|
|----------------------------------|
|----------------------------------|



  N.C.                                                     (C)
 6/8
                                                                     ~~

      |--3--|  |-3--|         |--3--|  |-3--|            |--3--|  |3-|

   E  E  E  E  E E  E E    E  E  E  E  E E  E E    E  E  E  E  E  E  Q

|-15-16-17-16-17---13---|-13-14-15-14-15---12---|-13-15-13-12-------15-|
|-----------------------|-----------------------|-------------13-------|
|-----------------------|-----------------------|----------------12----|
|-----------------------|-----------------------|----------------------|
|-----------------------|-----------------------|----------------------|
|-----------------------|-----------------------|----------------------|



  C                    D                          C
 5/4                                             7/8
                                           \1
                                       ~~~~~~~

   S  S  S  S  S  S  S  S  S  S  S S S E. +E  E   E  S  S  S  S  S  S  E  E E
|-------------12-15-12S10-----------------------|------------------12-15-12---|
|----------13-------------12--------------------|---------------13------------|
|-------12-------------------12--------4--(4)---|------------12---------------|
|----14-------------------------12-9s5----------|---------14------------------|
|-15--------------------------------------------|------15---------------------|
|-----------------------------------------------|-8s12------------------------|




  E  S  S  S  S  S  S  E  E E
|------------------12-15-12---|
|---------------13------------|
|------------12---------------|
|---------14------------------|
|------15---------------------|
|-8s12------------------------|



 4/4
                                          ~~~~~~~~~
   S S  S  E T  S  E T  E S  E   E    Q   Q   +H

|-15---15-17---17-17---19---19p(15)-|----20--(20)\----*|
|-----------------------------------|----20--(20)\----*|
|-----------------------------------|----17--(17)\----*|
|-----------------------------------|----17--(17)\----*|
|-----------------------------------|-----------------*|
|-----------------------------------|-----------------*|


-----------------------------------------------------------
versão 3.


|----7--10-7-|----7--10-7--10-7-8-10-8-7--|
|--8---------|--8-----------------------10|
|7-----------|7---------------------------|
|------------|----------------------------|
|------------|----------------------------|
|------------|----------------------------|




|----7--10-7-|----7--10-7--10-7-8-10-8-7---10|
|--8---------|--8-----------------------10---|
|7-----------|7------------------------------|
|------------|-------------------------------|
|------------|-------------------------------|
|------------|-------------------------------|

Comentários 0

Composição: Sabe quem é o compositor? Envie pra gente. Contribuição: Cachorro louco Correções: emilio e mais 1 »
Exibir acordes »
publicidade
fechar