Super Mario Bros Theme

Temas Diversos

Sem foto do Temas Diversos
Intro
G--------0------|
D-222--2--------|
A----3----------|
E-----------3---|

Verse
G------------02-0--------
D-----------2--3-2-0-----
A-3--0210---------3-2----
E--30----3---------------

Chorus
G-0----------------0-----555-|-0-------------------------|
D--431-2-------0----4312-----|--431-2--------0--1-0------|
A--------003-03--------------|---------003-03-------3----|
E----------------------------|---------------------------|

Bridge
G------------------------|-------------------------|
D------0-2----------0-2--|------0-2----------------|
A-333-3---30---333-3-----|-333-3---3-0-------------|
E-----------3------------|-------------3-----------|

Outro
G--------------222-0------|-------------------------|
D-2------33---------3-----|-2------33----333-20-----|
A--3----0--0--2------30---|--3----0--0--2-------3---|
E---3--3---------------3--|---3--3------------------|

Order
Intro 1x
Verse 2x
Chorus 2x
Bridge 1x
Intro 1x
Outro 1x

Comentários 1

  • baixista4 baixista4: Postado em 26/04/2012 17:29

    não concigo pega ela inteira não sei se é por falta de habilidade ou pq ta errada

Consegui tocarAinda não conseguiram tocar essa música. Seja o primeiro!
    Não consegui tocar
    publicidade
    fechar