Tema da Vitória

Temas Diversos

Sem foto do Temas Diversos
Tom: C
		

    C     G     F   C     G     F
E|--3-3--3--3-3--1--3-3--3--3-3--1--|
B|--5-5--3--3-3--1--5-5--3--3-3--1--|
G|--5-5--4--4-4--2--5-5--4--4-4--2--|
D|--5-5--5--5-5--3--5-5--5--5-5--3--|
A|----------------------------------|
E|----------------------------------|



E|--4--4-5-7-7-5-4-2--2--2-4-5-4-2-0--4--4-5-7-5-4-2--5-2-2--2-4-5-4-2-0--|
B|----------------------------------------------------------------------|
G|----------------------------------------------------------------------|
D|----------------------------------------------------------------------|
A|----------------------------------------------------------------------|
E|----------------------------------------------------------------------|



     C     G     F   C     G     F
E|--3-3--3--3-3--1--3-3--3--3-3--1--|
B|--5-5--3--3-3--1--5-5--3--3-3--1--|
G|--5-5--4--4-4--2--5-5--4--4-4--2--|
D|--5-5--5--5-5--3--5-5--5--5-5--3--|
A|----------------------------------|
G|----------------------------------|



E|--4--4-5-7-5-4-2--2--2-4-5-4-2-0--4--4-5-7-5-4-2--5-2-2--2-4-5-4-2-0--|
B|----------------------------------------------------------------------|
G|----------------------------------------------------------------------|
D|----------------------------------------------------------------------|
A|----------------------------------------------------------------------|
E|----------------------------------------------------------------------|
37.966 exibições

Comentários 2

  • Hassan Hassan : Postado em 15/09/2013 00:29

    kkkkkkkkkk Tema da vitória kkkkkkkkkk Essa porra é do Piratas do Caribe mano

  • juscelino.santos.5 juscelino.santos.5: Postado em 24/01/2013 13:22

    a sequencia ai é C G Bb F

Composição: Sabe quem é o compositor? Envie pra gente. Contribuição: Gio Drumond Correções: fuim »
Exibir acordes »
publicidade
fechar