Top Gear

Temas Diversos

Sem foto do Temas Diversos
Tom: E
		
(parte 5) |
(parte 1) |
(parte 2) | Tocar nessa Ordem!
(parte 1) |
(parte 3) |
(parte 4) |
(parte 5) |


(parte 1)


E|--------------12--12-11-----12----12--------|  |
B|--14----12-14-----------14-----12-------12--|  |
G|-----13------------------------------13-----|  |
D|--------------------------------------------|  |
A|--------------------------------------------|  |
E|--------------------------------------------|  |
                                                 | = 2x
E|--14-11-14-16-17--16-14-12--16-12-11-12-----|  |
B|----------------------------------------14--|  |
G|--------------------------------------------|  |
D|--------------------------------------------|  |
A|--------------------------------------------|  |
E|--------------------------------------------|  |


(parte 2)

E|-----12-11-9--------14-12-11-14-----17-16-14-12--11-11-11-12-14-12-11-----|
B|--10---------10--12--------------14-----------------------------------12--|
G|--------------------------------------------------------------------------|
D|--------------------------------------------------------------------------|  
A|--------------------------------------------------------------------------|  
E|--------------------------------------------------------------------------|


(parte 3)


E|-----12-----12-----12--11-11-12-14-12-11-----|
B|--10-----12-----10-----------------------12--|
G|---------------------------------------------|
D|---------------------------------------------|
A|---------------------------------------------|
E|---------------------------------------------|


(parte 4)


E|--16-16-16-16-16-17-16-16-16-16-17-16-14-14-14-14-16-14-16-16-16-16-16--|  |
B|------------------------------------------------------------------------|  |
G|------------------------------------------------------------------------|  |
D|------------------------------------------------------------------------|  | = 2x
A|------------------------------------------------------------------------|  |
E|------------------------------------------------------------------------|  |


(parte 5)


E|--16-12-----|
B|--------14--|
G|------------|
D|------------|   
A|------------|   
E|------------|


Comentários 3

  • Luiz Felipe Gom Luiz Felipe Gom: Postado em 23/12/2013 13:21

    pesquisa ''Top Gear Juninho'' no youtube e coloca no 1°
    ele é primo do meu primo. kk

  • sergio96 sergio96: Postado em 20/01/2012 12:34

    no violao ficou da hora

  • xitero xitero: Postado em 17/05/2011 21:26

    igualzinho ficou na guita

Composição: Sabe quem é o compositor? Envie pra gente. Contribuição: mlalvim Correções: chili.peppers e mais 1 »
Exibir acordes »
publicidade
fechar