A Canoa Virou

Temas Infantis

 Temas Infantis
Tom: A
		

e|-------------------5-5-5-4-2-------7-7-7---5-4-4-4-------------------
B|5-5-5---5-------5-5------------7-7-------------------7-5-5-----------
G|---------7-6---------------- ------------------------------7-6-------
D|---------------------------------------------------------------------
A|---------------------------------------------------------------------
E|---------------------------------------------------------------------



e|--------------------5-5-4-2-------7--7---5-4-4-----------------------
B|5-5-5-----------5-5------------7-7-----------------7-5-5-------------
G|---------7-6-----------------------------------------------7-6-------
D|---------------------------------------------------------------------
A|---------------------------------------------------------------------
E|---------------------------------------------------------------------

 
A      E     A
   A canoa virou
        A7          D
Pois deixaram ela virar
        Bm         E
Foi por causa de Maria
        E7      A
Que não soube remar
      E           A
Se eu fosse um peixinho
     A7      D
E soubesse nadar
     Bm     E
Eu tirava Maria
   E7       A
Do fundo do mar

         Bm
Siri pra cá,

Siri pra lá
        E
Maria é bela
         A
E quer casar.


Artur Gonzallez
108.541 exibições

Comentários 0

Exibir acordes »
publicidade
fechar