Atirei o Pau no Gato (tab)

Temas Infantis

 Temas Infantis
Tom: C
		

e|3-1-0---0-1-3-3-3--5-3-1-1-1--3-1-0-0-0|
B|------3--------------------------------|
G|---------------------------------------|
D|---------------------------------------|
A|---------------------------------------|
E|---------------------------------------|



e|--0-5-5-5--7-5-3-3-3--0-1-3--0-1-3--0-1-3-1-0----|
B|3---------------------------------------------3-1|
G|-------------------------------------------------|
D|-------------------------------------------------|
A|-------------------------------------------------|
E|-------------------------------------------------|


-----------------------------------
Outra Forma de Tocar:
-----------------------------------



e|-12-10-9----9-10-12-12-12|
B|---------12--------------|
G|-------------------------|
D|-------------------------|
A|-------------------------|
E|-------------------------|



e|-14-12-10-10-10|
B|---------------|
G|---------------|
D|---------------|
A|---------------|
E|---------------|



e|-12-10-9-9-9-|
B|-------------|
G|-------------|
D|-------------|
A|-------------|
E|-------------|



e|----12-14-14-14-16-14-12-12-12|
B|-10---------------------------|
G|------------------------------|
D|------------------------------|
A|------------------------------|
E|------------------------------|



e|9-10-12---9-10-12---10-9-------|
B|--------------------------12-10|
G|-------------------------------|
D|-------------------------------|
A|-------------------------------|
E|-------------------------------|

Comentários 4

  • leo247 leo247: Postado em 23/11/2011 21:33

    O comeco da versao 1 e o mesmo comeco da A barata diz que tem

    • powerjohn powerjohn: Postado em 29/12/2011 10:43

      é verdade (eu nao tinha percebido)

    • tsqueiros tsqueiros: Postado em 06/02/2014 16:09

      percebi desde quando aprendi e depois eu vi a tablatura da barata e vi que era igual

  • nescau1 nescau1: Postado em 22/08/2011 17:26

    mt facil para aprender.

Exibir acordes »
publicidade
fechar