Borboletinha

Temas Infantis

 Temas Infantis
Tom: F
		
Parte 1:
     borboletinha   tá na cozinha   fazendo chocolate   para a madrinha

E|---------------------------------------------------------------------------|
B|---------------------------------------------------------------------------|
G|-------2--3-3------------2-2----------------2-2--------------2--3-3--------|
D|---3-5------------3-5-3-----------3-5-5-3-3--------------3-5---------------|
A|---------------------------------------------------------------------------|
E|---------------------------------------------------------------------------|


Parte 2:
    Cu Ti Cu Tí   perna de pau    olho de vidro   nariz de pica-pau

E|-------------------------------------------------------------------------|
B|-------------------------------------------------------------------------|
G|----------3-------------2--------------2-2-------------2-2-3-----(3-3-3)-|
D|---3-5-3---------3-5-3----------3-5-3------------3-5-5-------------------|
A|-------------------------------------------------------------------------|
E|-------------------------------------------------------------------------|
96.643 exibições

Comentários 0

Exibir acordes »
publicidade
fechar