Dude I Totally Miss You

Tenacious D

 Tenacious D
Tom: G
		
Intro: Em  C  D  Em  Em  C  D  Em  Em  C  D  Em  Em  C  D

Em              C         D
Dude I totally miss you,
                 Em
I really fucking miss you,
Em        C
I'm all alone,
         D
All the time,
        Em
All the time,

Em              C         D
Dude I totally miss you,
                   Em
The things we do together,
C     D        Em
Where have you gone?

C                D
Totally miss the honesty,
   Em                           C
And special times and honestly,
                   D                    Em
I totally miss the fucked up things you do,

Em              D         C
Dude I totally miss you,
          D
I totally miss you,
Em              C
Dude I totally miss you,
        D
All the time,

Solo: Em  C  D  Em  Em  C  D  Em  Em  C  D  Em  Em C  D  Em

C                D
Totally miss the honesty,
   Em                           C
And special times and honestly,
                   D                    Em
I totally miss the fucked up things you do,

Em              D         C
Dude I totally miss you,
          D
I totally miss you,
Em              C
Dude I totally miss you,
        D
All the time,

     (descendo a partir da 5ª corda) (descida rápida)[finaliza]
          B7                            Em
All the time
Solo 1:

E|----------14h15p14p12h14b--12-10-12-----------------------------------------------------------|
B|-0h12-12~-----------------------------12-12----12-0--12-0--12-10-0--10-0--10---7--7/8---------|
G|--------------------------------------11h12----12-12-12-12-12-11-11-11-11-11---8--8/9---------|
D|----------------------------------------------------------------------------------------------|
A|----------------------------------------------------------------------------------------------|
E|----------------------------------------------------------------------------------------------|



E|----------------------------------------------------------------------------------------------|
B|--------10b-----------------13-12-10-/12~----------------7-10-12/13\12------------------------|
G|--9h12-------12p9--12p11p9------------------9-11-12b-9-8------11-11-11------------------------|
D|----------------------------------------------------------------------------------------------|
A|----------------------------------------------------------------------------------------------|
E|----------------------------------------------------------------------------------------------|


Solo 2:

E|----------------------------------------------------------------------------------------------|
B|-------------12-10--------10-10-10h12---------------------------------------------------------|
G|-----------1------11-----------------11h12p11-9-----------------------------------------------|
D|-----------------------------------------------------12-9-12-9-12/14--------------------------|
A|----------------------------------------------------------------------14p12p10-12p10h12b------|
E|----------------------------------------------------------------------------------------------|



E|----------------------------------10---12-----------------------------------------------------|
B|--8-10-10-8-10b-----------10-10b~---10---12---------------------------------------------------|
G|--------------------/9-12---------------------14-14p12p9-12-12h14-12--------------------------|
D|----------------------------------------------------------------------------------------------|
A|----------------------------------------------------------------------------------------------|
E|----------------------------------------------------------------------------------------------|



E|-------------------------------12-------------------------------------------------------------|
B|-----------------------12h15p12---------------------------------------------------------------|
G|------------------12h14----------14p12--------------------------------------------------------|
D|-------------12h14--------------------14p12---------------------------------------------------|
A|-----10h12h14------------------------------14p12p10--12-12h14~--------------------------------|
E|---12----------------------------------------------12-----------------------------------------|



E|-----------------------------|
B|-----------------------------|
G|--------------0--------------|
D|--------4--------4-----4-----|
A|-----2-----2--------2--------|
E|--0-----------------------0--|
Texto Colunas
Alterar tom ½ tom ½ tom
afinação acordes na letra esconder tabs mais »

Comentários (16)

  • rafael.franca.1401 rafael.franca.1401: Postado em 22/03/2014 10:47

    meu deus, os caras fazem aula de lepo lepo mas não fazem do Tenacious D

  • pilotinho pilotinho: Postado em 13/10/2013 21:23

    video aula pfvvvv!!!!!!!!!

  • davi_1 davi_1: Postado em 05/07/2013 02:44

    Pra que não ta conseguindo o ritmo, aqui eu fiz da seguinte maneira.
    Em--------D---------- C--------
    ↓ ↑ ↓ ↑ ---↓ ↑ ↓ ↑ ----↓ ↑ ↓ ↑

    • Gustavo Moreira Gustavo Moreira: Postado em 15/04/2014 03:56

      Vc sabe em qual tom o violão ta afinado?

  • jefferson jefferson: Postado em 26/04/2013 19:10

    foda é tipo eu sei toca os acorde tudo, falta só um ritmo basic.

  • hyrum.bandeiraalves hyrum.bandeiraalves: Postado em 14/03/2013 15:44

    mt facil

  • 3x6error404 3x6error404: Postado em 23/11/2012 15:19

    video aulaaaaa

  • brunokoiti brunokoiti: Postado em 05/10/2012 21:23

    tem uma vídeo aula com o Antichrist no "Guitarings"

  • junioracdc junioracdc: Postado em 25/06/2012 17:41

    Videio aula, poxa. nao só dessa como de todas é facil porem sem ajuda complica. vlw!

  • ze_toledo ze_toledo: Postado em 14/04/2012 14:06

    pelamor de deus,muito bom

Exibindo 10 de 16 comentários Mostrar mais ver todos »
Composição: Rick Bonadio / T. Berlin
Esse não é o compositor? Avise-nos.
Contribuição: rotten Correções: Mateus , XSnake1996 e mais 2 »
  1. Tudo Que Você Quiser - Luan Santana Manteve-se 4.902 exibições
  2. Lepo Lepo - Psirico Manteve-se 3.570 exibições
  3. Mozão - Lucas Lucco Manteve-se 3.423 exibições
  4. Logo Eu - Jorge e Mateus Manteve-se 3.029 exibições
  5. Gaveta - Fernando e Sorocaba Manteve-se 2.722 exibições
  6. Só Os Loucos Sabem - Charlie Brown Jr. Manteve-se 2.470 exibições
  7. Pra Você - Onze:20 Manteve-se 2.088 exibições
  8. Tempo Perdido - Legião Urbana Manteve-se 1.989 exibições
  9. Fui Fiel - Gusttavo Lima Manteve-se 1.760 exibições
  10. Na Linha do Tempo - Victor e Leo Manteve-se 1.759 exibições
  1. Jorge e Mateus- Manteve-se 18.170 exibições
  2. Legião Urbana- Manteve-se 16.306 exibições
  3. Luan Santana- Manteve-se 14.644 exibições
  4. Charlie Brown Jr.- Manteve-se 14.217 exibições
  5. Fernandinho- Manteve-se 12.391 exibições
  6. Thalles Roberto- Manteve-se 9.162 exibições
  7. Aline Barros- Manteve-se 9.064 exibições
  8. Católicas- Manteve-se 8.769 exibições
  9. Victor e Leo- Manteve-se 8.687 exibições
  10. Bruno e Marrone- Manteve-se 8.333 exibições
Exibir acordes »

Cifras e tabs

Fórum Cifra Club

Aprenda

Cifra Club News

Mais Serviços Cifra Club ID

Studio Sol

©1996 - 2014 Cifra Club · o primeiro, maior e mais acessado do Brasil · 329 mil músicas · 5.9 milhões pessoas cadastradas

publicidade
fechar