Quando a Saudade Aperta

Teodoro e Sampaio

 Teodoro e Sampaio
Tom: F
		
Introdução:


         F                 Bb
E|---------------17--17brbr-13------|
B|--10-11-13--13----------------15--|
G|----------------------------------|
D|----------------------------------|
A|----------------------------------|
E|----------------------------------|



         F           C7        F
E|--13-15-13------------------------|
B|-----------13-10-13-11--13-15-13--|
G|----------------------------------|
D|----------------------------------|
A|----------------------------------|
E|----------------------------------|



                    Bb      F
E|------------------------10-8------|
B|--1/6-6--6-8-10--8-6--6-------11--|
G|----------------------------------|
D|----------------------------------|
A|----------------------------------|
E|----------------------------------|



      C7      F
E|----------------|
B|--10-8--10-8-6--|
G|----------------|
D|----------------|
A|----------------|
E|----------------|


                             Riff
       F                    C7 
Foi tentando arejar minha cabeça
      Bb                      F    
Que joguei tudo pro alto e partir
     Bb                     Am   Dm
A saudade de você estava em tu..udo
       Gm                      C7
Que sentindo o peso da barra fugi
      F                         C7
Fui buscar no campo junto a natureza
    Bb                      F   
Energia para não morrer de amor
      Bb                       Am    Dm
Mas estavam lá também suas lembra..anças
      Gm         C7          F 
Que fizeram aumentar a minha dor


      Bb                            Am  
Compreendi que se a paixão aperta o cerco
      Gm            C7           F   F7
Da saudade ninguém consegue esconder  
      Bb                        Am         Dm
Tirei férias pra tentar te esquecer mas voltei
     Gm           C7      F
Com muito mais saudade de você


Introdução

                                  
     F                          C7  Riff 
Cavalguei de novo em meu cavalo preto
        Bb                    F     
Mas não vi você em seu cavalo branco
      Bb                      Am   Dm
Até a lua ao chegar ficou surpre..esa
      Gm                       C7 
Ao me ver sozinho ali sofrendo tanto
     F                      C7 
Madrugada me pegou lá na varanda
      Bb                    F  
Onde pensando em você adormeci
        Bb                      Am   Dm
Os meus olhos nem olharam as estre..elas
       Gm            C7         F 
Pois a minha estrela não estava ali


      Bb                            Am  
Compreendi que se a paixão aperta o cerco
      Gm            C7           F   
Da saudade ninguém consegue esconder  
      Bb                        Am         Dm
Tirei férias pra tentar te esquecer mas voltei
     Gm           C7      F    
Com muito mais saudade de você
      Bb                        Am         Dm
Tirei férias pra tentar te esquecer mas voltei
     Gm           C7        F  
Com muito mais saudade de você 


           F
E|--------------|
B|------6-8-10--|
G|--5-7---------|
D|--------------|
A|--------------|
E|--------------|


Riff


E|-------------|
B|--11-10-8----|
G|----------7--|
D|-------------|
A|-------------|
E|-------------|
59.444 exibições

Comentários 0

Composição: Teodoro / Homero / Julio Pires.
Esse não é o compositor? Avise-nos.
Exibir acordes »
publicidade
fechar