Vestido de Seda

Teodoro e Sampaio

 Teodoro e Sampaio
Tom: G
		
Intro:


                      G                       G7                C
E|--------4--7---6--9--|--7---6--7---4--------|-----4--9----7---7---|
B|-----5----------------|----------------5--3--|--5-------------------|
G|--4-------------------|----------------------|----------------------|
D|----------------------|----------------------|----------------------|
A|----------------------|----------------------|----------------------|
E|----------------------|----------------------|----------------------|


                                             G                   D
----5----5--7---9--|--5--5--7-----5--5--|--4--4--5----4--4--|
--------------------|--------------------|-------------------|
--------------------|--------------------|-------------------|
--------------------|--------------------|-------------------|
--------------------|--------------------|-------------------|
--------------------|--------------------|-------------------|



                       G                  G (tocar esse acorde uma oitava acima)
--2--2--4----2--0--|-0-2-0-2-0---------|
-------------------|-------------------|
-------------------|-------------------|
-------------------|-------------------|
-------------------|-------------------|
-------------------|-------------------|


G                              C         D           G
Meu bem eu queria que você voltasse ao menos pra buscar
                                            D7
Alguns objetos que na despedida você não levou
                            C              G
Um baton usado caido no canto da penteadeira
                             D7
Um vestido velho cheio de poeira
            C          D           G
Jogado no quarto com marcas de amor

Refrão:

F#m    Em    D7           C                 G
Vestido de seda o seu manequim também te deixou
                               D7
Ai no cantinho não tem mais valor
             C         D7        G
Se não tem aquela que tanto te usou
F#m      Em      D7               C                   G
Eu também não passo de um trapo humano sem minha querida
                              D7
Usado e jogado num canto da vida
               C        D7           G
Não sei o que faço sem meu grande amor

Intro:G G7 C G D G

                               C           D       G
Eu já nem acendo a luz do meu quarto quando vou deitar
                                                     D7
Porque no escuro não vejo no espelho meus olhos chorando
                                      C                 G
Não vou na cozinha pra não ver dois copos vazios na mesa
                                D7
Fazendo lembrar com tanta tristeza
             C       D       G
Da última noite que nós nos amamos
264.300 exibições

Comentários 0

Composição: Alcino Alves/Teodoro
Esse não é o compositor? Avise-nos.
Contribuição: felipe Correções: Igor , matfurrier e mais 6 »
Exibir acordes »
publicidade
fechar