Vestido de Seda

Teodoro e Sampaio

 Teodoro e Sampaio
Tom: G#
		
Intro:


                     Ab                       Ab7                C#
E|--------5--8---7--10--|--8---7--8---5--------|-----5--10----8---8---|
B|-----6----------------|----------------6--4--|--6-------------------|
G|--5-------------------|----------------------|----------------------|
D|----------------------|----------------------|----------------------|
A|----------------------|----------------------|----------------------|
E|----------------------|----------------------|----------------------|


                                            Ab                   Eb
----6----6--8---10--|--6--6--8-----6--6--|--5--5--6----5--5--|
--------------------|--------------------|-------------------|
--------------------|--------------------|-------------------|
--------------------|--------------------|-------------------|
--------------------|--------------------|-------------------|
--------------------|--------------------|-------------------|



                      Ab                  Ab (tocar esse acorde uma oitava acima)
--3--3--5----3--1--|-1-3-1-3-1---------|
-------------------|-------------------|
-------------------|-------------------|
-------------------|-------------------|
-------------------|-------------------|
-------------------|-------------------|


Ab                              C#         Eb           Ab
Meu bem eu queria que você voltasse ao menos pra buscar
                                            Eb7
Alguns objetos que na despedida você não levou
                         C#              Ab
Um baton usado caido no canto da penteadeira
                            Eb7
Um vestido velho cheio de poeira
           C#          Eb          Ab
Jogado no quarto com marcas de amor

Refrão:

                  Eb7               C#             Ab
Vestido de seda o seu manequim também te deixou
                               Eb7
Ai no cantinho não tem mais valor
             C#         Eb7        Ab
Se não tem aquela que tanto te usou
               Eb7                C#                   Ab
Eu também não passo de um trapo humano sem minha querida
                            Eb7
Usado e jogado num canto da vida
               C#          Eb7        Ab
Não sei o que faço sem meu grande amor

Intro:

                               C#            Eb       Ab
Eu já nem acendo a luz do meu quarto quando vou deitar
                                                    Eb7
Porque no escuro não vejo no espelho meus olhos chorando
                                     C#               Ab
Não vou na cozinha pra não ver dois copos vazios na mesa
                              Eb7
Fazendo lembrar com tanta tristeza
            C#          Eb      Ab
Da última noite que nós nos amamos
Texto Colunas
Alterar tom ½ tom ½ tom
afinação acordes na letra esconder tabs mais »
225.255 exibições

Comentários (0)

Composição: Alcino Alves/Teodoro
Esse não é o compositor? Avise-nos.
Contribuição: felipe Correções: Alencar , ccrriss e mais 4 »
  1. Tudo Que Você Quiser - Luan Santana Manteve-se 5.990 exibições
  2. Lepo Lepo - Psirico Manteve-se 4.438 exibições
  3. Mozão - Lucas Lucco Manteve-se 4.146 exibições
  4. Logo Eu - Jorge e Mateus Manteve-se 3.992 exibições
  5. Pra Você - Onze:20 Manteve-se 3.594 exibições
  6. Gaveta - Fernando e Sorocaba Manteve-se 3.572 exibições
  7. Só Os Loucos Sabem - Charlie Brown Jr. Manteve-se 3.053 exibições
  8. Fui Fiel - Gusttavo Lima Manteve-se 2.616 exibições
  9. Tempo Perdido - Legião Urbana Manteve-se 2.603 exibições
  10. Na Linha do Tempo - Victor e Leo Manteve-se 2.151 exibições
  1. Jorge e Mateus- Manteve-se 23.713 exibições
  2. Legião Urbana- Manteve-se 20.945 exibições
  3. Luan Santana- Manteve-se 17.298 exibições
  4. Charlie Brown Jr.- Manteve-se 17.152 exibições
  5. Fernandinho- Manteve-se 14.628 exibições
  6. Thalles Roberto- Manteve-se 11.183 exibições
  7. Católicas- Manteve-se 11.175 exibições
  8. Gusttavo Lima- Manteve-se 10.712 exibições
  9. Victor e Leo- Manteve-se 10.599 exibições
  10. Aline Barros- Manteve-se 10.088 exibições
Exibir acordes »

Cifras e tabs

Fórum Cifra Club

Aprenda

Cifra Club News

Mais Serviços Cifra Club ID

Studio Sol

©1996 - 2014 Cifra Club · o primeiro, maior e mais acessado do Brasil · 329 mil músicas · 5.9 milhões pessoas cadastradas

publicidade
fechar