Menina Linda

Tequila Baby

 Tequila Baby
Tom: G
		
Intro:

   G    D    G      D
E|--------------------------|
B|--------------------------|
G|------7-7---------7-7-7-7-|
D|-5-5--7-7--5-5-5--7-7-7-7-| (2x)
A|-5-5--5-5--5-5-5--5-5-5-5-|
E|-3-3-------3-3-3----------|


( G  D )
Ah deixa essa boneca faça-me o favor
deixa issu tudo vem brinca de amor
   C           D
de amor eh eh eh
de amor
( G  D )
Oh meu bem
lembre-se ue existe por aí alguém
que tão sozinho vive sem ninguém
    C
sem ninguém
    D
sem ninguém

E      C           G    ( B  Eb  E )
Menina linda eu te adoru
E      C           G
menina pura como a flor
C   D          G      E
sua boneca vai quebrar
C        D             ( G  D )
mas viverá o nosso amor
o nosso amor
Solo:

    C5             D            E5             B5             C5             G5             C             D
E|-------------------------------------------------------------------------------------------------------------|
B|-------------------------------------------------------------------------------------------------------------|
G|------------------------------------------------------------------------------------------------------------|
D|-------------------------------------------------------------------------------------------------------------|
A|-3-3-3-3-3-3-3--5-5-5-5-5---7-7-7-7-7-7-7--2-2-2-2----3-3-3-3-3-3-3--------------3-3-3-3-3-3-3-5-5-5-5-5-5-5-|
E|--------------------------------------------------------------------3-3-3-3-3-3-3----------------------------|


    C5             D5             E5             B5             C5             G5             C             D
E|-----------------------------------------------------------------------------------------------------------------|
B|-----------------------------------------------------------------------------------------------------------------|
G|-----------------------------------------------------------------------------------------------------------------|
D|-----------------------------------------------------------------------------------------------------------------|
A|-3-3-3-3-3-3-3-5-5-5-5-5-5-5-7-7-7-7-7-7-7-2-2-2-2-2-2-2-3-3-3-3-3-3-3---------------3-3-3-3-3-3-3-5-5-5-5-5-5-5-|
E|-----------------------------------------------------------------------3-3-3-3-3-3-3-----------------------------|


Base Final: Em

Riff Final:

    C5              D5              E5              B5              C5              G              C              D
E|------------------------------------------------------------------------------------------------------------------------|
B|------------------------------------------------------------------------------------------------------------------------|
G|-5-5-5-5-5-5-5--7-7-7-7-7-7-7--9-9-9-9-9-9-9--4-4-4-4-4-4-4--5-5-5-5-5-5-5-----------------5-5-5-5-5-5-5--7-7-7-7-7-7-7-|
D|-5-5-5-5-5-5-5--7-7-7-7-7-7-7--9-9-9-9-9-9-9--4-4-4-4-4-4-4--5-5-5-5-5-5-5--5-5-5-5-5-5-5--5-5-5-5-5-5-5--7-7-7-7-7-7-7-|
A|-3-3-3-3-3-3-3--5-5-5-5-5-5-5--7-7-7-7-7-7-7--2-2-2-2-2-2-2--3-3-3-3-3-3-3--5-5-5-5-5-5-5--3-3-3-3-3-3-3--5-5-5-5-5-5-5-|
E|----------------------------------------------------------------------------3-3-3-3-3-3-3-------------------------------|


(fim dessa base)

E|---------|
B|---------|
G|-7-5-4---|
D|-7-5-4-5-|
A|-5-3-2-5-|
E|-------3-|

Comentários 0

Composição: Bill Appleberry / Harry Warren / John Lennon / Mgrdichian / Paul McCartney / W. Jean / William Steinberg
Esse não é o compositor? Avise-nos.
Contribuição: Jonas Correções: d3nisss e mais 2 »
Exibir acordes »
publicidade
fechar