Tokyo Drift

Teriyaki Boyz

 Teriyaki Boyz Compositor: Cassiano Paes / Rafael
Tom: D
		

E|-------------------11-------|-------11-----------|-------12-14-15-14-|
B|-11-11-11-11-11-12----11-11-|-11-12----11-11-(7x)|-11-12-------------|
G|----------------------------|--------------------|-------------------|
D|----------------------------|--------------------|-------------------|
A|----------------------------|--------------------|-------------------|
E|----------------------------|--------------------|-------------------|



E|-17-15-14-12-12-(x2)|-------11-----------|-------11-14-15-14-|
B|--------------------|-11-12----11-11-(x5)|-11-12-------------|
G|--------------------|--------------------|-------------------|
D|--------------------|--------------------|-------------------|
A|--------------------|--------------------|-------------------|
E|--------------------|--------------------|-------------------|



E|-17-15-14-12-12-(x2)|
B|--------------------|
G|--------------------|
D|--------------------|
A|--------------------|
E|--------------------|
3.668 exibições

Comentários 0

Composição: Sabe quem é o compositor? Envie pra gente. Contribuição: cassi10 Correções: champoski »
Exibir acordes »
publicidade
fechar