Cantico 111 (Ele Chamará)

Testemunhas de Jeová

 Testemunhas de Jeová Compositor: Torre de vigia de bíblias e tratados
Tom: D
		
1ª frase:
 A vida é qual bruma lá no mar,Não dura muito tempo;

E|----------------------------------------------
B|--7-5-7-10-3-3-5-5-7-7------7-----7-----------
G|------------------------------------9-9--7----
D|-------------------------------7-----------9--
A|----------------------------------------------
E|----------------------------------------------


2ª frase:
Tudo que somos pode acabar, Deixando sofrimento.

E|----------------------------------------------------------
B|--8-7-8-12--7-7-5-5-7-8-10-7-------7------12--------------
G|--------------------------------------9-9----7------------
D|----------------------------------------------------------
A|----------------------------------------------------------
E|----------------------------------------------------------


3ª frase:
Se alguém morrer, pode reviver? Ouça o que Jeová fará:

E|---------------------------------------------------
B|---12--3-2-3--12---10-3-2-3-10--10--8-8-7-7-7-8----
G|------------------------------------------------9--
D|---------------------------------------------------
A|---------------------------------------------------
E|---------------------------------------------------


Refrão:
chamará os que estao mortos

E|------------------------------
B|-------------7-8-5-10---------
G|--7-9-11--------------7-------
D|------------------------------
A|------------------------------
E|------------------------------


á sua voz responderão,      jeová terá saudades

E|----------------------------------------------------
B|---12-14-15-15-14-10-12---12/14--10-10-10-12-10-----
G|------------------------------------------------12--
D|----------------------------------------------------
A|----------------------------------------------------
E|----------------------------------------------------


do trabalho da suas mãos

E|---------------------------------
B|-------------10-8-5--------------
G|--7-9-11------------7------------
D|---------------------------------
A|---------------------------------
E|---------------------------------


tenha fé, jamais duvide:

E|---------------------------------
B|-------------7-8-5---------------
G|--7-9-11----------7--------------
D|---------------------------------
A|---------------------------------
E|---------------------------------


quem amamos voltará! pra sempre viveremos

E|----------------------------------------------------
B|---12-14-15-15-14-10-12---12/14--10-10-10-12-10-----
G|-------------------------------------------------12-
D|----------------------------------------------------
A|----------------------------------------------------
E|----------------------------------------------------


com as bençãos de jeová.

E|---------------------------------
B|-------------10-8-5--------------
G|--7-9-11------------7------------
D|---------------------------------
A|---------------------------------
E|---------------------------------
Texto Colunas
Alterar tom ½ tom ½ tom
afinação acordes na letra esconder tabs mais »
9.628 exibições

Comentários (4)

  • Sharmilly Sharmilly: Postado em 05/03/2014 18:21

    obrigada!!! ameii

  • biellciifraa biellciifraa: Postado em 22/09/2012 14:03

    muito abrigado muito bom obrigado

  • erbethe erbethe: Postado em 24/05/2012 09:12

    muito bom obrig...

  • jeanzzera jeanzzera: Postado em 21/02/2012 20:47

    obrigado!!

Composição: Sabe quem é o compositor? Envie pra gente. Contribuição: djnathantw Correções: pedro_rick e mais 2 »
  1. Tudo Que Você Quiser - Luan Santana Manteve-se 5.990 exibições
  2. Lepo Lepo - Psirico Manteve-se 4.438 exibições
  3. Mozão - Lucas Lucco Manteve-se 4.146 exibições
  4. Logo Eu - Jorge e Mateus Manteve-se 3.992 exibições
  5. Pra Você - Onze:20 Manteve-se 3.594 exibições
  6. Gaveta - Fernando e Sorocaba Manteve-se 3.572 exibições
  7. Só Os Loucos Sabem - Charlie Brown Jr. Manteve-se 3.053 exibições
  8. Fui Fiel - Gusttavo Lima Manteve-se 2.616 exibições
  9. Tempo Perdido - Legião Urbana Manteve-se 2.603 exibições
  10. Na Linha do Tempo - Victor e Leo Manteve-se 2.151 exibições
  1. Jorge e Mateus- Manteve-se 23.713 exibições
  2. Legião Urbana- Manteve-se 20.945 exibições
  3. Luan Santana- Manteve-se 17.298 exibições
  4. Charlie Brown Jr.- Manteve-se 17.152 exibições
  5. Fernandinho- Manteve-se 14.628 exibições
  6. Thalles Roberto- Manteve-se 11.183 exibições
  7. Católicas- Manteve-se 11.175 exibições
  8. Gusttavo Lima- Manteve-se 10.712 exibições
  9. Victor e Leo- Manteve-se 10.599 exibições
  10. Aline Barros- Manteve-se 10.088 exibições
Exibir acordes »

Cifras e tabs

Fórum Cifra Club

Aprenda

Cifra Club News

Mais Serviços Cifra Club ID

Studio Sol

©1996 - 2014 Cifra Club · o primeiro, maior e mais acessado do Brasil · 329 mil músicas · 5.9 milhões pessoas cadastradas

publicidade
fechar