Jeová Nos Põe a Salvo

Testemunhas de Jeová

 Testemunhas de Jeová Compositor: Watch Tower / Brooklin / New York
Tom: D
		
(Para tocar na guitarra é melhor nas oitavas ( da 12ª casa pra frente) ou seja
0 = 12,  1= 13, 2=14, 3=15, 4=16, 5= 17 e assim por diante.)

Somente tu és Deus vivente Jeová,
Diante dos cordôes da morte clamarei:
Dos céus o som da tua voz ressoará.

E|----------------------------------------------------------
S----------------------------------------------------------
G|---2---------0---2----------------------------------------
D|-------3--3----------3---3---2---3---0---2---3---0---2---3
A|----------------------------------------------------------
E|----------------------------------------------------------


Nós vemos teu poder na Terra, céu e
"Ajuda-me Jeová." Tua força senti-
Teus inimigos vão tremer, ó Jeo-

E|---------------------------------------------------
B|------0--------------------------------------------
G|---2------0----------------------------------------
D|--------------1---0-------------------0---0---2---2
A|----------------------3---2---0---3----------------
E|---------------------------------------------------


mar. Não há um deus que seja superior
rei; Pois, do teu santo templo me ouvirás
vã. Mas todos os teus servos se alegrarão,

E|------------------------------------------------
B|-----------------------1---0---0---------------0
G|---2---0---2---0---2---------------2---0---2----
D|------------------------------------------------
A|------------------------------------------------
E|------------------------------------------------


ó Senhor. Destruirás os maus.
suplicar Por tua proteção.
pois verão Que tu os salvarás.

E|------------------------------------------------
B|------------------------------------------------
G|-----------0---2---0---------------2-------2---2
D|---2---3---------------3---2---0-------0--------
A|------------------------------------------------
E|------------------------------------------------


(refrão)
Jeová Deus, aos seus leais, põe a salvo. É Rocha per-

E|------------------------------------------------------------
B|-------------------------------0---1---3--------------------
G|---2---------------2---2---2---------------2---2---0---0----
D|-------4---0---3-------------------------------------------3
A|------------------------------------------------------------
E|------------------------------------------------------------


feita; imenso é seu poder - Nos protege, nos

E|----------------------------------------------------
B|-------------------------------------------0-------0
G|-----------0-------------------2---2---2-------0----
D|---2---3-------3---2---3---0------------------------
A|----------------------------------------------------
E|----------------------------------------------------


dá sua mão e salvará. Deste-

E|-----------------------------------------
B|-------------------0-------0-------------
G|---2-------------------0--------2---2---2
D|-------3---2---0-------------------------
A|-----------------------------------------
E|-----------------------------------------


midos, louvemos, então a Jeová.

E|---------------------------------------------|
B|---0-------0---------------------------------|
G|-------0-------2-----------------------------|
D|-------------------3---2---0---0---2---------|
A|---------------------------------------3---5-|
E|---------------------------------------------|

4.183 exibições

Comentários 0

Exibir acordes »
publicidade
fechar