Arde Outra Vez

Thalles Roberto

 Thalles Roberto
tom:F#m7
afinação: standard(padrão)-E-A-D-G-B-E
OBS: Reparem q a tablatura esta invertida,pos na maioria dos casos ela é escrita de baixo(corda mais grave) para  cima(corda mais aguda) ,e da esquerda(do leitor),pra a direita.
OBS2: Pensem nessa tab como um braço de contra baixo para canhotos e vcs conseguiram tocar.
OBS3: o nosso amigo(oque fez a tab aki no CC) só estava querendo ajudar,então não o julgue.

E|-------------------------------------------------2-0-2-0-2-0-2-0-2-0-2-2-4-------------|
A|-------4--------0-4-0-4-0-4/12---------------------------------------------3-4---------|
D|-------------------------------11------------------------------------------------------|
G|----------------------------------11-13-9-11-9-----------------------------------------|

Pre refrão:
E|-----\5------\4-------\2------------------|
A|------------------------------------------|
D|--------7--------6---------4----4---4-----|
G|----------6--------5---------3----3-------|

Refrão
E|------2-0-2-0-2-0-2-0-2-0-2-----------------------------------------------------|
A|-----------------------------4-0-4-0-4-0-4-0-4-0-4------------------------------|
D|--------------------------------------------------------------------------------|
G|--------------------------------------------------------------------------------|




Para o pessoal que reclama, pensem que ele tentou ajudar todos aqui, procurem ser "criativos" e procure seguir pela cifra também (A forma que eu costumo fazer pra preencher a música)
Não faça conforme está aqui, escute o tempo da música que dá pra entender.

G|----------------------------13---9h11---9/8--|
D|---------------------------------------------|
A|---------------4-4-4-4/11--------------------|
E|----2-2-2-2----------------------------------|

Pre refrão:

G|--------------------------------------------------|
D|-----------7--------6--------4--------------------|
A|----------7--------6--------4------------1--2/6---|
E|------5---------4--------2---------2--4-----------|

Refrão
(aqui ao invés de fazer com a nota solta, aqui fica legal da uma "abafadinha" na nota)

G|----------------------------------|---------------------------------|
D|----------------------------------|---------------------------------|
A|----------------------4-4-4-4-4-4-|-4-4-4-4-4-4----2--4-------------|
E|-2-2-2-2-2-2-----3--6-------------|---------------------2-2-2-2-2-2-|

Comentários (12)

  • lucas lucas: Postado em 09/03/2014 09:58

    ta dificiu de entender, mas valeu, me ajudo bastante ;)

  • extremista extremista: Postado em 16/10/2013 12:59

    (Só para complementar)...no ínicio a música é assim no slide para a 12 eu faço na 11, 13, 9 hammer na 11 e faço um slidezinho na 9 e 10 casa

  • extremista extremista: Postado em 16/10/2013 12:51

    No pré refrão você fez certinho, é tipo: Tônica, Quinta e Oitava, a galera ai que não tá entendo mesmo.

  • extremista extremista: Postado em 16/10/2013 12:47

    (Só pra complementar)...no refrão não é 2-0-2 é tipo uma 'apertadinha' na casa 2 dá só a impressão da nota solta mas é uma abafadinha.

  • Gabrielsantos1994 Gabrielsantos1994: Postado em 22/06/2013 14:19

    essa tablatura ta toda ao errada as cordas estão invertidas a leitura tem que ser feita da direita pra esquerda não da esquerda pra direita

  • Pedro Pedro: Postado em 24/03/2013 21:43

    Não ta perfeito mas acho q como base ta bom!só tem q saber usa-la! falo por mim mesmo pois já fiz outra por cima dessa com slap.

  • Pedro Pedro: Postado em 24/03/2013 21:40

    Não ta perfeito mas acho q como base ta bom!só tem q saber usa-la! falo por mim mesmo pois já fiz outra por cima dessa com mais viradas

  • israel777 israel777: Postado em 20/01/2013 11:03

    de Onde vc tirou issoojQuery172026511059305630624_1358686501362????? toda erradaa!

  • ftwoco ftwoco: Postado em 28/09/2012 15:21

    relacha cara me ajudou d + brigado

  • thiagomendes25 thiagomendes25: Postado em 29/07/2012 10:07

    Mano eu coloquei isso ai porque é o jeito que eu toco as vezes eu posso ajudar algumas pessoas mais se vc não conseguiu tocar pô só lamento

Exibindo 10 de 12 comentários Mostrar mais ver todos »
Composição: Thalles Roberto
Esse não é o compositor? Avise-nos.
Contribuição: thiagomendes25 Correções: extremista , flearocha e mais 2 »
  1. Tudo Que Você Quiser - Luan Santana Manteve-se 5.990 exibições
  2. Lepo Lepo - Psirico Manteve-se 4.438 exibições
  3. Mozão - Lucas Lucco Manteve-se 4.146 exibições
  4. Logo Eu - Jorge e Mateus Manteve-se 3.992 exibições
  5. Pra Você - Onze:20 Manteve-se 3.594 exibições
  6. Gaveta - Fernando e Sorocaba Manteve-se 3.572 exibições
  7. Só Os Loucos Sabem - Charlie Brown Jr. Manteve-se 3.053 exibições
  8. Fui Fiel - Gusttavo Lima Manteve-se 2.616 exibições
  9. Tempo Perdido - Legião Urbana Manteve-se 2.603 exibições
  10. Na Linha do Tempo - Victor e Leo Manteve-se 2.151 exibições
  1. Jorge e Mateus- Manteve-se 23.713 exibições
  2. Legião Urbana- Manteve-se 20.945 exibições
  3. Luan Santana- Manteve-se 17.298 exibições
  4. Charlie Brown Jr.- Manteve-se 17.152 exibições
  5. Fernandinho- Manteve-se 14.628 exibições
  6. Thalles Roberto- Manteve-se 11.183 exibições
  7. Católicas- Manteve-se 11.175 exibições
  8. Gusttavo Lima- Manteve-se 10.712 exibições
  9. Victor e Leo- Manteve-se 10.599 exibições
  10. Aline Barros- Manteve-se 10.088 exibições

Cifras e tabs

Fórum Cifra Club

Aprenda

Cifra Club News

Mais Serviços Cifra Club ID

Studio Sol

©1996 - 2014 Cifra Club · o primeiro, maior e mais acessado do Brasil · 329 mil músicas · 5.9 milhões pessoas cadastradas

publicidade
fechar