Casa do Pai

Thalles Roberto

 Thalles Roberto
Tom: G
		
Riff 1:

                        C9
E|------------------3--|
B|------------------3--|
G|------------------0--|
D|-------0-0h2------2--|
A|---0h2------------3--|
E|------------------x--|


Riff 2:

E|----------------------00----|
B|-------------------3--33----|
G|-----0----0---0-------00----|
D|--------4---4---4-----44----|
A|--2-------------------22----|
E|----------------------xx----|


C9                     G
Eu sinto falta da Sua voz
C9                 Em7
Me chamando pra entrar
 G                Am7
Eu sinto tanta saudade
              C9
De caminhar Contigo
                 Am7
Saudades do meu Amigo,
                 Em7
Saudades do meu Pai
C9                     G
Pai, eu sei que não mereço, mas
C9                    Em7
Eu não tenho pra onde ir,
G	           Am7
Eu sinto tanta saudade
                 C9
De conversar Contigo,
           	Am7
Saudades do meu Amigo
                 Em7
Saudades do meu Pai
G       C9
Eu vou voltar pra casa do Pai
            G                  C9
Eu quero o amor da casa do meu Pai
            	Am7			Em7
E repousar tranquilo nos braços do meu Pai

Comentários 1

  • mateus mateus: Postado em 11/01/2014 17:26

    essa música é boa e fácil :D só faltou ensinar a tocar as Riff's dentro da música, mais deu pra desenrolar :D

Composição: Thalles Roberto
Esse não é o compositor? Avise-nos.
Contribuição: Quefren Correções: caio , marcelo e mais 3 »
Exibir acordes »
publicidade
fechar