House Of The Rising Sun Intro

The Animals

 The Animals
Tom: C
		
 The House of the Rising Sun
 Submitted by Halfdan Baadsvik
 Tabbed by Halfdan Baadsvik and Lars Havro

 I've seen many submitions of this song with 
 the correct chords. But the arpeggio is not 
 so good on all of them. Some are almost OK,
 some are bad and some are just  downright 
 bizarre.
 But THIS verson is very close to the autentic 
 sound. Actually, I don't think it's possible
 to get any closer.

    Am          C           D            

 e|-------0-----------0-----------2-----|   
 B|-----1*--1-------1*--1-------3*--3---|
 G|----2*-----2----0*-----0----2*-----2-|
 D|---2*----------2*--------0-0*--------|
 A|-0-----------3-----------------------|
 E|-------------------------------------|


    E           F

 e|-------0-----------1-----|
 B|-----0*--0-------1*--1---|
 G|----1*-----1----2*-----2-|
 D|---2*----------3*--------|
 A|-------------------------|
 E|-0-----------1-----------|


 * - Let your plectrum slide down the strings on these
     notes. If you didn't get that, mail me and I'll try
     to explain it another way.
 
 Questions, comments and suggestions to *
 
10.452 exibições

Comentários 0

Consegui tocarAinda não conseguiram tocar essa música. Seja o primeiro!
    Não consegui tocar
    Exibir acordes »
    publicidade
    fechar