Act Naturally

The Beatles

 The Beatles
        intro
|-----|------------|-----------------|-----------|-----------------|
|-----|------------|--------------4--|--5--------|--5-----------4--|
|-----|--5---------|--5---5---7------|--------5--|------5---7------|
|-----|--------5---|-----------------|-----------|-----------------|

A %
1    they're gonna...      put me...                                         they're...       
2,4  hope you...           see me...                                         then I ...
3    make the...           man that's...                        (2 and 3)    beggin down...
|-----------------------|---------------|-----------|---------------------|-----------|
|*---5------------------|--5------------|-----------|---------------------|--5--------|
|*---------5------------|--------5---2--|--3--------|--3--------(------3)-|--------5--|
|-----------------------|---------------|--------3--|--------3--(3------)-|-----------|

   star out...                                                     make a film...
   will plainly...                                                 biggest fool...
   his bended...                                                   play the...
         (third time    )                (               second time              )            
|-------------------------|-----------|-------------------------|-----------|---------------|
|--5-----(4-------------)-|-----------|----------------------4--|--5--------|--5------------|
|------------2---7---3----|--5--------|--5-----5--3---7--2------|--------5--|--------5---2--|
|-------------------------|--------5--|--(-------------------5--|--3--------|--3--)---------|

                               and    all I gotta do
                               and    all I gotta do
                               all        I have to do
|-----------|----------------------|----------------------|---------------|
|-----------|----------------------|----------------------|------------4--|
|--3--------|--3-----2-----3-------|--5-------------------|--5-----7------|
|--------3--|-----------(3--------)|----------------5-----|---------------|
                        (2nd time )

  (       2nd and 3rd time     )   TO %                            
|--------------------------------|
|-(5--5--------------5--------5)-|
|-----------7-----5--------------|
|--------------------------7-----|

1.3____________
        well I'll
|-----------------|
|---5-------------|
|-----------------|
|-(3-------)------|
  (3rd time)

B 
   bet you         gonna be...       big star             might     win a Oscar
|---------------|-----------------|------------|-----------------|-----------------|
|---------------|--------------4--|--5---------|--5---5---4------|-----------------|
|--5------------|--5---5---7------|--------5---|--------------7--|--5--------------|
|--------5------|-----------------|------------|-----------------|--------5--------|

   you can't...                                       movies gonna      make me
|-----------------|---------|----------------------|-----------------|---------------|
|--------------4--|--5------|--5--5---5-----4------|-----------------|------------4--|
|--5---5---7------|------5--|-------------------7--|--5--------------|--5-----7------|
|-----------------|---------|----------------------|--------5--------|---------------|

   big star                                     I can...
|------------|---------------|---------------|---------------|---------------|
|--5---------|--5---------5--|--7-----7---7--|--7-----7---7--|---------------|
|--------5---|--------5------|---------------|---------------|--5-----5---5--|
|------------|---------------|---------------|---------------|---------------|

_________________________  2________
               well  I
|------------------------|----------|
|--------------------4--*|----------|
|--5-----5-----7--------*|----------|
|------------------------|--3-------|

C
|-----------|---------------|-----------|-----------------------|--------7-----------5--|
|-----------|---------------|--5--------|--5-----5-----4--------|------------5-S-7------|
|--5--------|--5---------5--|--------5--|--------------------7--|--5--------------------|
|--------5--|--------5------|-----------|-----------------------|-----------------------|

                                                   we'll
|--7-----5-----4--------|-----------|-----------------|
|--------------------7--|--5--------|--5--------------|
|-----------------------|--------5--|--------2-----5--|
|-----------------------|-----------|-----------------|

CODA
|--------|
|--------|
|--------|
|--3-----|

|-----------|-----------------------|-----------------------|--------|
|-----------|-----------------------|--5--------------------|--------|
|--5-----5--|--5-----5-----5-----5--|--------7-----5--------|--------|
|-----------|-----------------------|--------------------7--|--3-----|



_______________________________________________________
Contribuição: valdir felix junior(paulislivefaclube@ig.com.br)

Comentários 0

Composição: Frank Aguiar / Jim Ed Norman / Michele Baldi / P.A. Hartman / Silvio Humaitá
Esse não é o compositor? Avise-nos.
Consegui tocarAinda não conseguiram tocar essa música. Seja o primeiro!
    Não consegui tocar
    publicidade
    fechar