|--2-|----|--2-|----|--2-|----|--2-|----|--2-|----|--------|
|0---|--4-|0---|--4-|0---|--4-|0---|--4-|0---|--4-|4-----0-|
|----|2---|----|2---|----|2---|----|2---|----|2---|--2-2---|
|----|----|----|----|----|----|----|----|----|----|--------|

|--2-2---|--2-|----|--2-|----|--2-|----|--2-|----|--2-|----|
|2-----2-|0---|--4-|0---|--4-|0---|--4-|0---|--4-|0---|--4-|
|--------|----|2---|----|2---|----|2---|----|2---|----|2---|
|--------|----|----|----|----|----|----|----|----|----|----|

|--------|--2-2---|--2-2---|--------|0-0-----|0-0-----|0-0-----|
|4-----0-|2-----2-|0-------|0-0-2-4-|----0-4-|----0-4-|----0-4-|
|--2-2---|--------|------4-|--------|--------|--------|--------|
|--------|--------|--------|--------|--------|--------|--------|

|0-0-----|--------|--------|--------|--------|0-0-----|0-0-----|
|--------|0-0-----|0-0-----|0-0-----|0-0-2-4-|----0-4-|----0-4-|
|----0-4-|----0-4-|----0-4-|----0-4-|--------|--------|--------|
|--------|--------|--------|--------|--------|--------|--------|

|0-0-----|0-0-----|--------|------0-|2-2-2-|2-2-0-0---------|
|----0-4-|------0-|2-2---0-|2-2-2---|------|--------4-4-2-2-|
|--------|----2---|----2---|--------|------|----------------|
|--------|--------|--------|--------|------|----------------|

|--2-|----|--2-|----|--------|--2-2---|--2-2---|--------|0-0-----|
|0---|--4-|0---|--4-|4-----0-|2-----2-|0-------|0-0-2-4-|----0-4-|
|----|2---|----|2---|--2-2---|--------|------4-|--------|--------|
|----|----|----|----|--------|--------|--------|--------|--------|

|0-0-----|0-0-----|0-0-----|--------|--------|--------|--------|
|----0-4-|----0-4-|--------|0-0-----|0-0-----|0-0-----|0-0-2-4-|
|--------|--------|----0-4-|----0-4-|----0-4-|----0-4-|--------|
|--------|--------|--------|--------|--------|--------|--------|

|0-0-----|0-0-----|0-0-----|0-0-----|--------|------0-|2-2-2-|
|----0-4-|----0-4-|----0-4-|------0-|2-2---0-|2-2-2---|------|
|--------|--------|--------|----2---|----2---|--------|------|
|--------|--------|--------|--------|--------|--------|------|

|2-0-------|--2-----|----|--2-----|----|--------|--2-------|
|----4-2---|0---0---|--4-|0---0---|--4-|0-----0-|2-------2-|
|--------0-|------4-|2---|------4-|2---|--2-2---|----0-4---|
|----------|--------|----|--------|----|--------|----------|

|--2---|--------|--2---|--------|--2---|--------|--|
|0---0-|--4-----|0---0-|--4-----|0---0-|--4-----|0-|
|------|2---0-4-|------|2---0-4-|------|2---0-4-|--|
|------|--------|------|--------|------|--------|--|

Comentários 0

Composição: Alexander
Esse não é o compositor? Avise-nos.
Contribuição: LucasS. BassMan
Consegui tocarAinda não conseguiram tocar essa música. Seja o primeiro!
    Não consegui tocar
    publicidade
    fechar