I'm a Loser

The Beatles

 The Beatles
Tom: C
		
(intro)

      Am7 D7       Am7  D7
I'm a loser,   I'm a loser,
        Am7          F       D7
And I'm not what I appear to be.

G          D          F           G    G4
Of all the love I have won or have lost
             D            F          G        G4
There is one love I should never have crossed.
          D        F          G       G4
She was a girl in a million my friend,
              D              F          G
I should have known she would win in the end.

(refrão)
      Am7 D7        Am7                D7
I'm a loser, and I lost someone who's near to me
       G  Em          Am          F       D7
I'm a loser, and I'm not what I appear to be.

G            D              F       G   G4
Although I laugh and I act like a clown
              D           F        G   G4
Beneath this mask I am wearing a frown.
              D            F             G  G4
My tears are falling like rain from the sky
           D         F          G
Is it for her or myself that I cry

(refrão)

(solo de guitarra)
E|------ ------ ------ ------|------ ------ ------ ------|

B|---------------------------|---------------------------|
G|---------------------------|---------------------------|
D|---------------------------|---------------------------|
A|---------------------------|---------------------------|
E|---------------------------|-------2------3-----4------|



E|------ ------ ------ ------|------ ------ ------ ------|

B|---------------------------|---------------------------|
G|---------------------------|---------------------------|
D|---------------------------|---------------------------|
A|0--------------------------|---------------------------|
E|---------------------------|---------------------------|



E|------ 5----- ------ ------|7----- ------ ----7- ------|

B|-------5----------5--------|-----------7---------------|
G|--------------5------------|---------------------7-----|
D|---------------------------|---------------------------|
A|---------------------------|---------------------------|
E|---------------------------|---------------------------|



E|------ 5----- ------ ------|7----- ------ ----7- ------|

B|-------5----------5--------|7----------7---------------|
G|------------------5--------|-----------7---------7-----|
D|--------------7------------|---------------------------|
A|---------------------------|---------------------------|
E|---------------------------|---------------------------|



E|------ 6----- ----6- ------|------ ------ ------ ------|

B|---------------------------|5----------5------5--------|
G|---------------------------|-----------7------7--------|
D|---------------------------|---------------------------|
A|---------------------------|---------------------------|
E|---------------------------|---------------------------|



E|------ 8----- -----5 ------|5----- ----5- ------ 5-----|

B|---------------------5-----|6----------6-B-7-----7-----|
G|---------------------------|---------------------------|
D|---------------------------|---------------------------|
A|---------------------------|---------------------------|
E|---------------------------|---------------------------|



G           D          F            G   G4
What have I done to deserve such a fate,
      D           F           G   G4
I realize I have left It too late.
              D            F           G   G4
And so It's true pride comes before a Fall,
             D           F              G
I'm telling you so that you won't lose all

(refrão)
Texto Colunas
Alterar tom ½ tom ½ tom
afinação acordes na letra esconder tabs mais »

Comentários (1)

  • help_mjp help_mjp: Postado em 26/11/2012 14:24

    porfavor cree un video para esta canción. gracias

Composição: Harry Warren / John Lennon / Paul McCartney / W. Jean / William Steinberg
Esse não é o compositor? Avise-nos.
Contribuição: Cal Correções: léo e mais 1 »
  1. Tudo Que Você Quiser - Luan Santana Manteve-se 5.838 exibições
  2. Lepo Lepo - Psirico Manteve-se 4.258 exibições
  3. Mozão - Lucas Lucco Manteve-se 4.092 exibições
  4. Logo Eu - Jorge e Mateus Manteve-se 3.677 exibições
  5. Gaveta - Fernando e Sorocaba Manteve-se 3.251 exibições
  6. Só Os Loucos Sabem - Charlie Brown Jr. Manteve-se 2.945 exibições
  7. Pra Você - Onze:20 Manteve-se 2.783 exibições
  8. Tempo Perdido - Legião Urbana Manteve-se 2.356 exibições
  9. Fui Fiel - Gusttavo Lima Manteve-se 2.236 exibições
  10. Na Linha do Tempo - Victor e Leo Manteve-se 2.111 exibições
  1. Jorge e Mateus- Manteve-se 22.167 exibições
  2. Legião Urbana- Manteve-se 19.327 exibições
  3. Luan Santana- Manteve-se 17.248 exibições
  4. Charlie Brown Jr.- Manteve-se 16.750 exibições
  5. Fernandinho- Manteve-se 14.218 exibições
  6. Thalles Roberto- Manteve-se 10.904 exibições
  7. Católicas- Manteve-se 10.314 exibições
  8. Aline Barros- Manteve-se 10.062 exibições
  9. Victor e Leo- Manteve-se 10.039 exibições
  10. Gusttavo Lima- Manteve-se 9.893 exibições
Exibir acordes »

Cifras e tabs

Fórum Cifra Club

Aprenda

Cifra Club News

Mais Serviços Cifra Club ID

Studio Sol

©1996 - 2014 Cifra Club · o primeiro, maior e mais acessado do Brasil · 329 mil músicas · 5.9 milhões pessoas cadastradas

publicidade
fechar