In Spite Of All The Danger

The Beatles

 The Beatles
Tom: E
		
Intro:

E|---------12--12--10-------12--12--10--------------
B|--9--12---------------12--------------12--10------
G|----------------------------------------------11--
D|--------------------------------------------------
A|--------------------------------------------------
E|--------------------------------------------------


                      E
In spite of all the danger
In spite of all that may be
                       A		       B7
I'll do anything for you, anything you want me to
                             E    A  E
If you'll be true to me

E
In spite of all the heartaches
That you made for me
		      A  	               B7
I'll do anything for you, anything you want me to
                          E    A   E
If you'll be true to me

      A
I'll look after you
           E
Like I've never done before
       A
I'll keep all these others
     B7  (1 strum)
From knockin' at your door
Solo:

E|---------12--12--10------12--12----------12--12--10------12--12---------12--12--10------12--12--10------12--
B|--9-12---------------12-----------9--12--------------12----------9--12--------------12--------------12------
G|------------------------------------------------------------------------------------------------------------
D|------------------------------------------------------------------------------------------------------------
A|------------------------------------------------------------------------------------------------------------
E|------------------------------------------------------------------------------------------------------------



E|--10------12--10------12--10------12--10------15--15--14--12--15--15--14--12--15--15--14--12--15--15--14--12-
B|------12----------12----------12----------12-----------------------------------------------------------------
G|-------------------------------------------------------------------------------------------------------------
D|-------------------------------------------------------------------------------------------------------------
A|-------------------------------------------------------------------------------------------------------------
E|-------------------------------------------------------------------------------------------------------------



E|--12--12--12--10------12--12--10------12--10------12--10------12--10------12--10-------------12--12--12--12--
B|------------------12--------------12----------12----------12----------12----------12--10---------------------
G|------------------------------------------------------------------------------------------11-----------------
D|-------------------------------------------------------------------------------------------------------------
A|-------------------------------------------------------------------------------------------------------------
E|-------------------------------------------------------------------------------------------------------------



E|--12--12------12--10------12--10------12--10-----12--10------------------------------------------------------
B|----------12----------12----------12----------12---------12--10----------------------------------------------
G|-----------------------------------------------------------------11------------------------------------------
D|-------------------------------------------------------------------------------------------------------------
A|-------------------------------------------------------------------------------------------------------------
E|-------------------------------------------------------------------------------------------------------------

[t/ab#inicio]

I'll do anything for you, anything you want me to   If you'll be true to me
Texto Colunas
Alterar tom ½ tom ½ tom
afinação acordes na letra esconder tabs mais »
26.633 exibições

Comentários (4)

  • yoshi.nakamura yoshi.nakamura: Postado em 14/07/2012 21:16

    tenta ouvir a musica e tirar o solo é facil

  • dani_ddr dani_ddr: Postado em 30/01/2012 20:34

    está faltando um pedaço da música e do solo tambem

  • grchiper grchiper: Postado em 21/10/2011 18:50

    o solo está faltando

  • caioyoung caioyoung: Postado em 06/09/2011 12:09

    quero aprender o solo ...

Composição: Harrison / McCartney
Esse não é o compositor? Avise-nos.
Contribuição: beta pinto Correções: Pedro e mais 2 »
  1. Tudo Que Você Quiser - Luan Santana Manteve-se 5.838 exibições
  2. Lepo Lepo - Psirico Manteve-se 4.258 exibições
  3. Mozão - Lucas Lucco Manteve-se 4.092 exibições
  4. Logo Eu - Jorge e Mateus Manteve-se 3.677 exibições
  5. Gaveta - Fernando e Sorocaba Manteve-se 3.251 exibições
  6. Só Os Loucos Sabem - Charlie Brown Jr. Manteve-se 2.945 exibições
  7. Pra Você - Onze:20 Manteve-se 2.783 exibições
  8. Tempo Perdido - Legião Urbana Manteve-se 2.356 exibições
  9. Fui Fiel - Gusttavo Lima Manteve-se 2.236 exibições
  10. Na Linha do Tempo - Victor e Leo Manteve-se 2.111 exibições
  1. Jorge e Mateus- Manteve-se 22.167 exibições
  2. Legião Urbana- Manteve-se 19.327 exibições
  3. Luan Santana- Manteve-se 17.248 exibições
  4. Charlie Brown Jr.- Manteve-se 16.750 exibições
  5. Fernandinho- Manteve-se 14.218 exibições
  6. Thalles Roberto- Manteve-se 10.904 exibições
  7. Católicas- Manteve-se 10.314 exibições
  8. Aline Barros- Manteve-se 10.062 exibições
  9. Victor e Leo- Manteve-se 10.039 exibições
  10. Gusttavo Lima- Manteve-se 9.893 exibições
Exibir acordes »

Cifras e tabs

Fórum Cifra Club

Aprenda

Cifra Club News

Mais Serviços Cifra Club ID

Studio Sol

©1996 - 2014 Cifra Club · o primeiro, maior e mais acessado do Brasil · 329 mil músicas · 5.9 milhões pessoas cadastradas

publicidade
fechar