In Spite Of All The Danger

The Beatles

 The Beatles
Tom: E
		
Intro:

E|------------12--12--10-------12--12--10--------------
B|--9--12--12-------------12--------------12--10------
G|----------------------------------------------11--
D|--------------------------------------------------
A|--------------------------------------------------
E|--------------------------------------------------


                      E
In spite of all the danger
In spite of all that may be
                       A		       B7
I'll do anything for you, anything you want me to
                             E    A  E
If you'll be true to me

E
In spite of all the heartaches
That you made for me
		      A  	               B7
I'll do anything for you, anything you want me to
                          E    A   E
If you'll be true to me

      A
I'll look after you
           E
Like I've never done before
       A
I'll keep all these others
     B7  (1 strum)
From knockin' at your door
Solo:

E|---------12--12--10------12--12----------12--12--10------12--12---------12--12--10------12--12--10------12--
B|--9-12---------------12-----------9--12--------------12----------9--12--------------12--------------12------
G|------------------------------------------------------------------------------------------------------------
D|------------------------------------------------------------------------------------------------------------
A|------------------------------------------------------------------------------------------------------------
E|------------------------------------------------------------------------------------------------------------



E|--10------12--10------12--10------12--10------15--15--14--12--15--15--14--12--15--15--14--12--15--15--14--12-
B|------12----------12----------12----------12-----------------------------------------------------------------
G|-------------------------------------------------------------------------------------------------------------
D|-------------------------------------------------------------------------------------------------------------
A|-------------------------------------------------------------------------------------------------------------
E|-------------------------------------------------------------------------------------------------------------



E|--12--12--12--10------12--12--10------12--10------12--10------12--10------12--10-------------12--12--12--12--
B|------------------12--------------12----------12----------12----------12----------12--10---------------------
G|------------------------------------------------------------------------------------------11-----------------
D|-------------------------------------------------------------------------------------------------------------
A|-------------------------------------------------------------------------------------------------------------
E|-------------------------------------------------------------------------------------------------------------



E|--12--12------12--10------12--10------12--10-----12--10------------------------------------------------------
B|----------12----------12----------12----------12---------12--10----------------------------------------------
G|-----------------------------------------------------------------11------------------------------------------
D|-------------------------------------------------------------------------------------------------------------
A|-------------------------------------------------------------------------------------------------------------
E|-------------------------------------------------------------------------------------------------------------

[t/ab#inicio]

I'll do anything for you, anything you want me to   If you'll be true to me
29.666 exibições

Comentários 5

  • Rodrigo Rodrigo: Postado em 03/06/2014 17:04

    qual e o ritmo da musica??

  • yoshi.nakamura yoshi.nakamura: Postado em 14/07/2012 21:16

    tenta ouvir a musica e tirar o solo é facil

  • dani_ddr dani_ddr: Postado em 30/01/2012 20:34

    está faltando um pedaço da música e do solo tambem

  • grchiper grchiper: Postado em 21/10/2011 18:50

    o solo está faltando

  • caioyoung caioyoung: Postado em 06/09/2011 12:09

    quero aprender o solo ...

Composição: Harrison / McCartney
Esse não é o compositor? Avise-nos.
Contribuição: beta pinto Correções: patrick.lopes.927 , azul.br e mais 2 »
Exibir acordes »
publicidade
fechar