Lucy In The Sky With Diamonds

The Beatles

 The Beatles
Tom: C
		
Introdução:


E|---------12------12--------------12------10p9-------|
B|-----10--------------10------10-----------------10--|
G|--9----------12----------11----------10-------------|
D|----------------------------------------------------|
A|----------------------------------------------------|
E|----------------------------------------------------|



Primeira Parte:

1

    A          A7/G        F#m7        F
E|---------12------12--------------12------10p9-------|
B|-----10--------------10------10-----------------10--|
G|--9----------12----------11----------10-------------|
D|----------------------------------------------------|
A|--0----------10----------9-----------8--------------|
E|----------------------------------------------------|


2

    A          A7/G        F#m7        F
E|---------12------12--------------12--8--12-8--------|
B|-----10--------------10------10------10-10-10-10----|
G|--9----------12----------11----------10-10-10----10-|
D|----------------------------------------------------|
A|--0----------10----------9-----------8--------8-----|
E|----------------------------------------------------|


3

    A          A7/G        F#m7        F
E|---------12------12--------------12------10p9-------|
B|-----10--------------10------10-----------------10--|
G|--9----------12----------11----------10-------------|
D|----------------------------------------------------|
A|--0----------10----------9-----------8--------------|
E|----------------------------------------------------|


4

    A          A7/G       F#m7
E|--------12------12------9--12--9--12--9--12---------|
B|----10--------------10--10-10--10-10--10-10---------|
G|-9----------12--------------------------------------|
D|----------------------------------------------------|
A|-0----------10----------9---------9-----------------|
E|----------------------------------------------------|


5

   Dm
E|-10-13--10-13--10-13--------------------------------|
B|-10-10--10-10--10-10--------------------------------|
G|----------------------------------------------------|
D|----------------------------------------------------|
A|----------------------------------------------------|
E|-10--------10---------------------------------------|



 A	       A7/G      F#m7      F
Picture yourself in a boat on a river
      A	     A7/G     F#m7       F
With tangerine trees and marmalade skies
 A        A7/G          F#m7           F
Somebody calls you, you answer quite slowly
   A           A7/G      F#m7  Dm
A girl with kaleidoscope eyes


Segunda Parte:

 Bb                    C
Celophane flowers of yellow and green
 F                  Bb
Towering over your head
 C                          G
Look for the girl with the sun in her eyes
  	     D
And she's gone


Refrão:

 G            C9      D
Lucy in the sky with diamonds 
 G            C9      D
Lucy in the sky with diamonds 
 G            C9      D
Lucy in the sky with diamonds 
D
Ahh


Repete a Primeira Parte:

 A	      A7/G       F#m7       F
Follow her down to a bridge by a fountain
       A	         A7/G       F#m7        F
Where rocking horse people eat marshmallow pies
A          A7/G          F#m7           F
Everyone smiles as you drift past the flowers
       A         A7/G    F#m7  Dm
That grow so incredibly high


Repete a Segunda Parte:

 Bb                C
Newspaper taxis appear on the shore
 F                    Bb
Waiting to take you away
  C                          G
Climb in the back with your head in the clouds
            D
And you're gone


Repete o Refrão:

 G            C9      D
Lucy in the sky with diamonds 
 G            C9      D
Lucy in the sky with diamonds 
 G            C9      D
Lucy in the sky with diamonds 
D
Ahh


Repete a Primeira Parte:

 A	       A7/G       F#m7       F
Picture yourself on a train in a station
       A	     A7/G         F#m7          F
With plasticine porters with looking glass ties
 A         A7/G        F#m7        F
Suddenly, someone is there at the turnstile
     A           A7/G      F#m7  Dm
The girl with kaleidoscope eyes


Refrão Final:

 G            C9      D
Lucy in the sky with diamonds 
 G            C9      D
Lucy in the sky with diamonds 
 G            C9      D
Lucy in the sky with diamonds
D      A
Ahh...

 G            C9      D
Lucy in the sky with diamonds 
 G            C9      D
Lucy in the sky with diamonds 
 G            C9      D
Lucy in the sky with diamonds
D      A
Ahh...

 G            C9      D
Lucy in the sky with diamonds 
 G            C9      D
Lucy in the sky with diamonds 
 G            C9      D
Lucy in the sky with diamonds
Texto Colunas
Alterar tom ½ tom ½ tom
afinação acordes na letra esconder tabs mais »

Comentários 4

  • wilamesouza wilamesouza: Postado em 06/09/2014 22:33

    Pra ficar igual o da Novela, põe um tom abaixo e faz os acorde...

  • licia licia: Postado em 08/08/2013 10:19

    o que significa esse 3p2???

    • Gustavo Gustavo: Postado em 12/08/2013 19:44

      pull over da casa 3 para a casa 2

  • deeniis deeniis: Postado em 02/08/2011 17:57

    Muito Bom o Solo

Composição: Harry Warren / John Lennon / Paul McCartney / W. Jean / William Steinberg
Esse não é o compositor? Avise-nos.
Contribuição: Akuma Correções: gustavofofao , Pedro e mais 9 »
  1. Até Você Voltar - Henrique e Juliano Manteve-se 102.034 exibições
  2. Domingo de Manhã - Marcos e Belutti Manteve-se 81.869 exibições
  3. Cuida Bem Dela - Henrique e Juliano Manteve-se 50.189 exibições
  4. Recaídas - Henrique e Juliano Manteve-se 44.256 exibições
  5. Pra Você - Onze:20 Manteve-se 42.541 exibições
  6. Só Os Loucos Sabem - Charlie Brown Jr. Manteve-se 34.011 exibições
  7. Logo Eu - Jorge e Mateus Manteve-se 31.686 exibições
  8. Pais e Filhos - Legião Urbana Manteve-se 31.441 exibições
  9. Raridade - Anderson Freire Manteve-se 30.984 exibições
  10. Aonde Quer Que Eu Vá - Os Paralamas do Sucesso Manteve-se 24.850 exibições
  1. Henrique e Juliano- Manteve-se 278.305 exibições
  2. Jorge e Mateus- Manteve-se 233.694 exibições
  3. Legião Urbana- Manteve-se 204.598 exibições
  4. Charlie Brown Jr.- Manteve-se 158.541 exibições
  5. Bruno e Marrone- Manteve-se 127.852 exibições
  6. Fernandinho- Manteve-se 121.372 exibições
  7. Luan Santana- Manteve-se 102.569 exibições
  8. Marcos e Belutti- Manteve-se 100.360 exibições
  9. The Beatles- Manteve-se 94.130 exibições
  10. Thalles Roberto- Manteve-se 93.705 exibições
Exibir acordes »

Cifras e tabs

Fórum Cifra Club

Aprenda

Cifra Club News

Mais Serviços Cifra Club ID

Studio Sol

©1996 - 2014 Cifra Club · o primeiro, maior e mais acessado do Brasil · 339 mil músicas · 6.3 milhões pessoas cadastradas

publicidade
fechar