Lonely Boy

The Black Keys

 The Black Keys
Tom: D
		
Intro:


E|--------------------------------------------------------------------------|
B|--------------------------------------------------------------------------|
G|--------------------------------------------------------------------------|x4
D|--------------------------------------------------------------------------|
A|--------------------------------------------------------------------------|
E|---0-0-0-0-3b--0-0--0-0-0-0-3b-0------------------------------------------|


Riff 1: (com teclado)


E|--------------------------------------------------------------------------|
B|----5-5--5-3--------------------------------------------------------------|
G|-------------4-2-0-2---2-2--2-0-------------------------------------------|x2
D|----------------------------------2-0-2-----------------------------------|
A|--------------------------------------------------------------------------|
E|--------------------------------------------------------------------------|


Riff 2: (abafado)


         E E E E             E E E E          E E E E          E E E E
E|------0-0-0-0-------------0-0-0-0----------0-0-0-0----------0-0-0-0-------|
B|------0-0-0-0-------------0-0-0-0----------0-0-0-0----------0-0-0-0-------|
G|--------------------------------------------------------------------------|
D|--------------------------------------------------------------------------|
A|--------------------------------------------------------------------------|
E|---0--------------0-3b-0-----------0-3b-0-----------0-3b-0----------------|


E
Well I'm so above you
G                   A
And it's fine to see
E                  	   G	 A
But I came to love you anyway
E
So you tore my heart out
G			A
And I don't mind bleeding
E
Any old time to keep me waiting
G	   A
Waiting, waiting

Refrão:
E5		G		A
Oh, oh oh I got a love that keeps me waiting
E5		G		A
Oh, oh oh I got a love that keeps me waiting
E5
I'm a lonely boy
G		A
I'm a lonely boy
E5 		G		A
Oh, oh oh I got a love that keeps me waiting

E				G		A
Well your mama kept you but your daddy left you
E					G    A
And I should've done you just the same
E					G    A
But I came to love you and I'm gone to be
E
Any old time you keep me waiting
G	  A
Waiting, waiting
47.697 exibições

Comentários 12

  • WesleyTorresDrummond WesleyTorresDrummond: Postado em 18/10/2014 23:27

    B-----------------5-5-5-3 B-------4-0-2---------2-2-------2-0----------G-------2-0-2

  • vito vito: Postado em 27/05/2013 19:27

    falta aglo...

  • João João: Postado em 18/05/2013 00:54

    E------------------------B--5-5--3-5-3G----------------2-0-2--2-2-0-2-0D--------------------------------------2-0-2

  • José José: Postado em 11/02/2013 15:12

    Muito Boa E Fácil De Tocar !!!

  • feer_faith feer_faith: Postado em 28/01/2013 19:58

    Intro errada -.-

    • le113 le113: Postado em 13/03/2013 23:12

      faça melhor ué

    • Igor Köhnlein Igor Köhnlein: Postado em 03/04/2013 19:57

      Comentário removido

    • Igor Köhnlein Igor Köhnlein: Postado em 03/04/2013 19:57

      Acabei de enviar uma correção com a intro correta e tudo mais. Espero ter ajudado. =]

    • Igor Köhnlein Igor Köhnlein: Postado em 03/04/2013 20:04

      Acabei de enviar uma correção com a intro correta e tudo mais. Espero ter ajudado um pouquinho... =]

    • João João: Postado em 18/05/2013 00:55

      E------------------------B--5-5--3-5-3G----------------2-0-2--2-2-0-2-0D--------------------------------------2-0-2acho q assim fica melhor

Exibindo 10 de 12 comentários Mostrar mais ver todos »
Composição: Arcade Fire / Atrocity / Banana Jam / D. Green / Polly Anne Samson / Rodrigo Mell
Esse não é o compositor? Avise-nos.
Contribuição: le113 Correções: Dilvo , Fernando e mais 2 »
Exibir acordes »
publicidade
fechar