Been Down so Long

The Doors

 The Doors
  (Introdução da gaita (0:00-1:10))
e|------------------|---------------|-----------------|----------------------------------------------
B|------------------|---------------|-----------------|----------------------------------------------
G|------------------|---------------|-----------------|----------------------------------------------
D|------------------|---------------|-----------------|----------------------------------------------
A|-----7--6--5--4---|---------------|----7--6--5--4---|--------------------------------5h7p5h7p5h7---
E|------------------|---5--4--3--2--|-----------------|--7--7-765-765-765-765-765-5------------------
    (0:12-1:28)        (1:28-1:37)     (1:37-1:45)        (1:45-1:53)      


e|------------------|---------------|-----------------|-----------------------------------------------
B|------------------|---------------|-----------------|-----------------------------------------------
G|------------------|---------------|-----------------|-----------------------------------------------
D|------------------|---------------|-----------------|-----------------------------------------------
A|-----7--6--5--4---|---------------|----7--6--5--4---|---------------------------------5h7p5h7p5h7---
E|------------------|---5--4--3--2--|-----------------|---7--7-765-765-765-765-765-5------------------
    (1:53-2:17)       (2:17-2:27)      (2:27-2:35)         (2:35-2:43)


e|------------------|---------------|-----------------|----------------------
B|------------------|---------------|-----------------|----------------------
G|------------------|---------------|-----------------|----------------------
D|------------------|---------------|-----------------|----------------------
A|-----7--6--5--4---|---------------|----7--6--5--4---|----------------------
E|------------------|---5--4--3--2--|-----------------|---7-7-7-7-6-5-5-5~~--
     (2:43-3:09)       (3:09-3:18)      (3:18-3:26)         (3:26-3:31)


e|------------------|---------------|-----------------|--------------------------------
B|------------------|---------------|-----------------|--------------------------------
G|------------------|---------------|-----------------|--------------------------------
D|------------------|---------------|-----------------|--------------------------------
A|-----7--6--5--4---|---------------|----7--6--5--4---|--------------------------------
E|------------------|---5--4--3--2--|-----------------|----7-6-5-4-5-4-3-2-2/5~--------
     (3:31-3:59)       (3:59-4:09)      (4:09-4:16)         (4:16-4:21)


    (solo do teclado e da gaita (4:34-5:11))
e|------------------|---------------|-----------------|--------------------------
B|------------------|---------------|-----------------|--------------------------
G|------------------|---------------|-----------------|--------------------------
D|------------------|---------------|-----------------|--------------------------
A|-----7--6--5--4---|---------------|----7--6--5--4---|--------------------------
E|------------------|---5--4--3--2--|-----------------|----765-7-7-5-5-7-765-5~--
    (4:21-4:50)        (4:50-5:07)      (4:59-5:06)          (5:06-5:12)      


e|------------------|---------------|-----------------|------------------------------
B|------------------|---------------|-----------------|------------------------------
G|------------------|---------------|-----------------|------------------------------
D|------------------|---------------|-----------------|------------------------------
A|-----7--6--5--4---|---------------|----7--6--5--4---|------------------------------
E|------------------|---5--4--3--2--|-----------------|----7-7---6-5-5--5/12\5--5~---
    (5:12-5:40)       (5:40-5:49)      (5:49-5:58)           (5:58-6:02)


e|------------------|---------------|-----------------|--------------------------------
B|------------------|---------------|-----------------|--------------------------------
G|------------------|---------------|-----------------|--------------------------------
D|------------------|---------------|-----------------|--------------------------------
A|-----7--6--5--4---|---------------|----7--6--5--4---|--------------------------------
E|------------------|---5--4--3--2--|-----------------|----7-7-7-7-5-5-765-765--5~-----
    (6:02-6:32)        (6:32-6:40)      (6:40-6:48)        (6:48-6:53)               


e|----------------------------------
B|----------------------------------
G|----------------------------------
D|----------------------------------
A|-----7-7-5-5-4-4-3-3-2--2/8-7~~---
E|----------------------------------
     (6:53-7:07)

_______________________________________________________
Contribuição: Leonardo Faria Valdo(leonardo_valdo@hotmai.com)
2.369 exibições

Comentários 0

Composição: B. Chatman / Jermaine Jackson / Jim Morrison / John Densmore / Liz Rose / Ray Manzarek / Robby Krieger / Steve Kipner / Toni Cottura
Esse não é o compositor? Avise-nos.
Consegui tocarAinda não conseguiram tocar essa música. Seja o primeiro!
    Não consegui tocar
    publicidade
    fechar