Por Causa de Você

The Fevers

 The Fevers
Tom: D
		
(intro) D Em A D

  D         F#m
Só você nao vê
              Em
Finge que não sabe
                  G
Que eu estou sofreeendo
  A             D
Por causa de você
 D             F#m
Sonho que não vem
           Em
Luzes na cidade
             G
Eu me sinto sóóó
  A            D
Por causa de você
 D7            G
E eu te quero tanto
               D        Bm
Tanto que nem sei dizer
             Em        A7
Que a felicidade pra mim
 Em   A7           D
É nunca perder você
 D7             G
Peço pra uma estrela
             D         Bm
Pra te convencer enfim
                    Em       A7
Que eu não sou ninguém sem você
   A7              D
E não há você sem mim

(solo e repete)

(solo)

E|--------------------------------------------------------|
B|--11/12-12-12--11-10--11/12--11-10----------------------|
G|--------------------------------------------9b(11)-11---|
D|--------------------------------------------------------|
A|--------------------------------------------------------|
E|--------------------------------------------------------|



E|--------------------------------------------------|
B|--11/12-12-12--11--10--11-10-10----10/11--11/13---|
G|--------------------------------------------------|
D|--------------------------------------------------|
A|--------------------------------------------------|
E|--------------------------------------------------|



E|-------------------------------------------------------------|
B|-------------------------------------------------------------|
G|-------------------------------------------------------------|
D|--9b(10)-1010-9--10/11--12-10-9--9b(10)-1010-9--10/12--10-9--|
A|-------------------------------------------------------------|
E|-------------------------------------------------------------|



E|---------------------------|
B|---------------------------|
G|---------------------------|
D|---------------------------|
A|--12--9b(10)---------------|
E|--------------12b(11)---9--|

Comentários 0

Composição: Mayday Parade / Melvin Cruz
Esse não é o compositor? Avise-nos.
Contribuição: Gustavo Correções: Kellen e mais 1 »
Exibir acordes »
publicidade
fechar