Beleza Interior

The Flanders

 The Flanders
Tom: F#
		
Base em rife : C# F# G#  

Solo:  Baixo


G|-----------------------------------------------------------------------|
D|---------------------------4-4s3s6---------------------------4-4s3s6---|
B|-----------8-8s6s4s6s4-4-4-------------------8-8s6s4s6s4-4-4-----------|
E|-9-9-9-9-9-------------------------9-9-9-9-9---------------------------|


Solo: Guitarra 


e|----------------------------------------------------------|
B|----------------------------------------------------------|
G|----------------------------------------------------------|
D|-------------------------------------------4/3--4/6-6-6---| 2x
A|-4-4-4-4-4-4-4--8/6-4-4/6---4-4-4-4-4-4-4-----------------|
E|----------------------------------------------------------|



C#                                      
Sei que você e tão linda amor          |        


        F#         G#                  |
Mas não pude acreditar                 |

       C#                              | Só o baixo, sem guitarra   
Quando abriu a boca foi um Horror      |

      F#            G#                 |
E nem sabia o que falar                |

            
       C#                             _
Fica cuidando só do seu visual         |

       F#             G#               | 
Vai por um Pircing no nariz            |   

      C#                               |   Baixo mais Guitarra Abafada  
Fazer regime ficar passando mau        |
           F#                  G#      |
E acha que assim pode ser mais feliz  _|   

F#
Mas a vida passa tão rápido  (Ooo ooo oooooo)
A#                         G#
E tudo isso um dia vai acabar
       F#       
Quando chegar a hora de perecer (Ooo ooo oooooo)
   A#             G#
Os bigatos vão te comer
 
      C#
Tenho um intestino grosso 
                F#          
E um delgado um pulmão do lado esquerdo
    G#
E o outro do outro lado
C#
Minha boca é meio torta, mais isso não importa 
      F#                      C#
O que importa é minha beleza interior
    C#
Meu cabelo já caiu não tem mais nenhum fio na frente
    F#                       G#
Na gengiva uma janela falta uma pa de dentes
      C#
Gosto muito do que sou descobri isso de repente
      F#                           C#
O que importa é minha beleza interior 



e|----------------------------------------------------------|
B|----------------------------------------------------------|
G|----------------------------------------------------------|
D|-------------------------------------------4/3--4/6-6-6---|mais a base
A|-4-4-4-4-4-4-4--8/6-4-4/6---4-4-4-4-4-4-4-----------------|
E|----------------------------------------------------------|

                                                                 _

C#                                     F#          G#             |
Sei que você e tão linda amor, mas não posso suportar             |

       C#                                  F#             G#      | Baixo
Tiver assim só pensando no exterior,e lá dentro o que que Há a a _|
         C#                               F#              G#      _
Andar na moda você se incomoda, se eu não puder te acompanhar       |
       C#                     F#                           G#      |G + B
O silicone nem mesmo estalone vão te ajudar quando a idade chegar _|

F#
Mas a vida passa tão rápido  (Ooo ooo oooooo)
A#                         G#
E tudo isso um dia vai acabar
       F#       
Quando chegar a hora de perecer (Ooo ooo oooooo)
   A#             G#
Os bigatos vão te comer
 
      C#
Tenho um intestino grosso 
                F#          
E um delgado um pulmão do lado esquerdo
    G#
E o outro do outro lado
C#
Minha boca é meio torta, mais isso não importa 
      F#                      C#
O que importa é a beleza interior
    C#
Meu cabelo já caiu não tem mais nenhum fio na frente
    F#                       G#
Na gengiva uma janela falta uma pa de dentes
      C#
Gosto muito do que sou descobri isso de repente
      F#                           C#
O que importa é minha beleza interior 


e|-------------------------------------------|
B|-------------------------------------------|
G|--6--------6-6-6-6-6-----------------------|
D|--6--------6-6-6-6-6--4-------6-6-6-6-6----|
A|--4--------4-4-4-4-4--4-------6-6-6-6-6----|
E|----------------------2-------4-4-4-4-4----|



e|-------------------------------------------|
B|---------------------8-8-7-8/10------------|
G|--7/11-11/9-9/7-7--7-----------------------| 4X 
D|-------------------------------------------| 
A|-------------------------------------------|
E|-------------------------------------------|



      C#
Tenho um intestino grosso 
                F#          
E um delgado um pulmão do lado esquerdo
    G#
E o outro do outro lado
C#
Minha boca é meio torta, mais isso não importa 
      F#                      C#
O que importa é a beleza interior
    C#
Meu cabelo já caiu não tem mais nenhum fio na frente
    F#                       G#
Na gengiva uma janela falta uma pa de dentes
      C#
Gosto muito do que sou descobri isso de repente
      F#                           C#
O que importa é minha beleza interior 

Comentários 0

Composição: Sabe quem é o compositor? Envie pra gente. Contribuição: Riverraide Correções: Charles »
Exibir acordes »
publicidade
fechar