When You Were Young

The Killers

 The Killers
Tom: C
		
Intro:

(guitarra 1)

E|--9-x-x--------------------------------------------------------------------|
B|--9-x-x--------------------------------------------------------------------|
G|--9-x-x--9------11-----13------16------9-----------------------------------|
D|---------9--x8--11--x4-13--x4--16--x8--9---x8------------------------------|
A|---------7------9------11------14------7-----------------------------------|
E|---------------------------------------------------------------------------|

(guitarra 2)

E|-----------4--2-----------------4--2---------------------------------------|
B|--------------------------------------------------------------------------|
G|----1-4-----------3----1-4-------------1------------------------------------|
D|---------------------------------------------------------------------------|
A|---------------------------------------------------------------------------|
E|---------------------------------------------------------------------------|


(0:18 - 0:32)

Pré-Refrão:

(guitarra 1)

E|-----------------------------------------------------------|
B|-----------------------------------------------------------|
G|------------9------11-------13-------16-----9--------------|
D|----------9------11------13-------16------9----------------|
A|---------7------9------11------14--------7-----------------|
E|-----------------------------------------------------------|

(guitrra 2)

E|-----------------------------------------------------------|
B|-----------------------------------------------------------|
G|---------9------11-----13------16------9-------------------|
D|---------9--x8--11--x4-13--x4--16--x8--9---x8--------------|
A|---------7------9------11------14------7-------------------|
E|-----------------------------------------------------------|



E|-----------4--2-----------------4--2---------------------------------------|
B|--------------------------------------------------------------------------|
G|----1-4-----------3----1-4-------------1------------------------------------|
D|---------------------------------------------------------------------------|
A|---------------------------------------------------------------------------|
E|---------------------------------------------------------------------------|


Pré-Refrão:

(guitarra 1)

E|-----------------------------------------------------------|
B|-----------------------------------------------------------|
G|------------9------11-------13-------16-----9--------------|
D|----------9------11------13-------16------9----------------|
A|---------7------9------11------14--------7-----------------|
E|-----------------------------------------------------------|

(guitrra 2)

E|-----------------------------------------------------------|
B|-----------------------------------------------------------|
G|---------9------11-----13------16------9-------------------|
D|---------9--x8--11--x4-13--x4--16--x8--9---x8--------------|
A|---------7------9------11------14------7-------------------|
E|-----------------------------------------------------------|



E|-----------4--2-----------------4--2---------------------------------------|
B|---------------------------------------------------------------------------|
G|----1-4-----------3----1-4-------------1-----------------------------------|
D|---------------------------------------------------------------------------|
A|---------------------------------------------------------------------------|  (2x)
E|---------------------------------------------------------------------------|



E|-----------------------------------------------------------|
B|-----------------------------------------------------------|
G|------------9------11-------13-------16-----9--------------|
D|----------9------11------13-------16------9----------------|
A|---------7------9------11------14--------7-----------------|
E|-----------------------------------------------------------|


Solo:

E|-11-11-11-11-11-11-11-11-11-11-11-11-11-11--------------------|
B|-------------------------------------------7-7-7-9-9-9-9------|
G|--------------------------------------------------------------|
D|--------------------------------------------------------------|
A|--------------------------------------------------------------|
E|--------------------------------------------------------------|



E|-------------16--14--------16-16-------------------16--14------|
B|-----9h11-------------------------------9h11-------------------|
G|----------------------15----------16-----------------------13--|
D|---------------------------------------------------------------|
A|---------------------------------------------------------------|
E|---------------------------------------------------------------|



E|---------------------------------------------------------|
B|---------------------------------------------------------|
G|----9----8----6----4-------------------------------------|
D|----9-x3-8-x3-6-x3-4-x4--------4-------------------------|
A|----7----6----4----2----1------4-------------------------|
E|----------------------------4--2-------------------------|


( 1:55 - 2:11 )

             Dm                                 F                        G
They Say The Devil's Water It Aint So Sweet You Dont Have To Drink Right Now
Em                      F     G
   But You Can Dip Your Feet, Every Once In A Little While

Nessa parte abaixo as palhetadas mudam de ritimo.

Solo 2:

E|-----11-11-11-11-11-11-11-11-11-11--------------------------------|
B|------------------------------------7-7-7-9-9-9-9-9-9-9-9---------|
G|------------------------------------------------------------------|
D|------------------------------------------------------------------|
A|------------------------------------------------------------------|
E|------------------------------------------------------------------|



E|----14-14-14-14-14-14-14-14-14-14---------------------------------|
B|------------------------------------7-7-7-9-9-9-9-9-9-9-9---------|
G|------------------------------------------------------------------|
D|------------------------------------------------------------------|
A|------------------------------------------------------------------|
E|------------------------------------------------------------------|



E|-------------16--14--------16-16-------------------16--14------|
B|-----9h11-------------------------------9h11-------------------|
G|----------------------15----------16-----------------------13--| (3x)
D|---------------------------------------------------------------|
A|---------------------------------------------------------------|
E|---------------------------------------------------------------|


Final:

E|---------------------------------------------------------|
B|---------------------------------------------------------|
G|----9----8----6----4-------------------------------------|
D|----9-x3-8-x3-6-x3-4-x4--------4-------------------------|
A|----7----6----4----2----1------4-------------------------|
E|----------------------------4--2-------------------------|
Texto Colunas
Alterar tom ½ tom ½ tom
afinação acordes na letra esconder tabs mais »

Comentários 10

  • Felipe Felipe: Postado em 17/02/2013 09:07

    Muito dahora,pra quem ta dizendo que ta errada,parece que tem poucos erros mas vc escutando a musica vc acerta o ritimo

  • haddson haddson: Postado em 05/02/2013 13:36

    O.0........ jo jou muy bueno!

  • danielguedes13 danielguedes13: Postado em 30/01/2013 23:51

    O refrão da cifra ta errada

  • elfangreen elfangreen: Postado em 15/10/2012 19:54

    meu nao achei legal a cifra

  • cyratux cyratux: Postado em 18/07/2012 12:52

    facil !!!!

  • iuri037 iuri037: Postado em 19/05/2012 22:16

    eu to conseguido tocar essa música no violão e ta mto foda!! xD

    • Eduardo Eduardo: Postado em 14/06/2014 21:06

      eu tambm kkkkk

  • bigcabeludo bigcabeludo: Postado em 22/02/2012 17:10

    fera, pena eu ser o unico a tocar guitarra aqui em casa

  • dkster dkster: Postado em 15/11/2011 14:11

    Fera mesmo!!!!

  • ikke ikke: Postado em 27/08/2011 10:14

    massa essa aqui em!!!!!!!!!!!

Composição: André Matos / M. Garza / The Killers
Esse não é o compositor? Avise-nos.
Contribuição: RodS2Jaki Correções: Gustavo , ricardo__ e mais 3 »
  1. Domingo de Manhã - Marcos e Belutti Manteve-se 98.258 exibições
  2. Até Você Voltar - Henrique e Juliano Manteve-se 53.974 exibições
  3. Pra Você - Onze:20 Manteve-se 50.133 exibições
  4. Recaídas - Henrique e Juliano Manteve-se 41.598 exibições
  5. Logo Eu - Jorge e Mateus Manteve-se 40.596 exibições
  6. Evidências - Chitãozinho & Xororó Manteve-se 37.100 exibições
  7. Só Os Loucos Sabem - Charlie Brown Jr. Manteve-se 31.698 exibições
  8. Give Me Love - Ed Sheeran Manteve-se 30.072 exibições
  9. Cuida Bem Dela - Henrique e Juliano Manteve-se 29.719 exibições
  10. Pais e Filhos - Legião Urbana Manteve-se 29.263 exibições
  1. Jorge e Mateus- Manteve-se 252.870 exibições
  2. Legião Urbana- Manteve-se 210.599 exibições
  3. Henrique e Juliano- Manteve-se 188.337 exibições
  4. Charlie Brown Jr.- Manteve-se 151.539 exibições
  5. Bruno e Marrone- Manteve-se 138.471 exibições
  6. Marcos e Belutti- Manteve-se 120.396 exibições
  7. Fernandinho- Manteve-se 119.285 exibições
  8. Luan Santana- Manteve-se 108.496 exibições
  9. Thalles Roberto- Manteve-se 94.265 exibições
  10. Victor e Leo- Manteve-se 92.036 exibições
Exibir acordes »

Cifras e tabs

Fórum Cifra Club

Aprenda

Cifra Club News

Mais Serviços Cifra Club ID

Studio Sol

©1996 - 2014 Cifra Club · o primeiro, maior e mais acessado do Brasil · 337 mil músicas · 6.2 milhões pessoas cadastradas

publicidade
fechar